ISO-10303-21;
HEADER;
FILE_DESCRIPTION((''),'2;1');
FILE_NAME('543195-01-Z01','2021-05-06T08:38:08',('AT10150'),(''),
'CREO PARAMETRIC BY PTC INC, 2019164','CREO PARAMETRIC BY PTC INC, 2019164','');
FILE_SCHEMA(('AUTOMOTIVE_DESIGN { 1 0 10303 214 1 1 1 1 }'));
ENDSEC;
DATA;
#44=DIRECTION('',(0.E0,-1.E0,0.E0));
#45=VECTOR('',#44,1.27E1);
#46=CARTESIAN_POINT('',(0.E0,0.E0,0.E0));
#47=LINE('',#46,#45);
#48=DRAUGHTING_PRE_DEFINED_CURVE_FONT('continuous');
#49=CURVE_STYLE('',#48,POSITIVE_LENGTH_MEASURE(2.E-2),#16);
#50=PRESENTATION_STYLE_ASSIGNMENT((#49));
#51=STYLED_ITEM('',(#50),#47);
#52=DIRECTION('',(0.E0,0.E0,-1.E0));
#53=VECTOR('',#52,2.E-1);
#54=CARTESIAN_POINT('',(0.E0,-1.27E1,0.E0));
#55=LINE('',#54,#53);
#56=CURVE_STYLE('',#48,POSITIVE_LENGTH_MEASURE(2.E-2),#16);
#57=PRESENTATION_STYLE_ASSIGNMENT((#56));
#58=STYLED_ITEM('',(#57),#55);
#59=DIRECTION('',(0.E0,1.E0,0.E0));
#60=VECTOR('',#59,3.5E-1);
#61=CARTESIAN_POINT('',(0.E0,-1.27E1,-2.E-1));
#62=LINE('',#61,#60);
#63=CURVE_STYLE('',#48,POSITIVE_LENGTH_MEASURE(2.E-2),#16);
#64=PRESENTATION_STYLE_ASSIGNMENT((#63));
#65=STYLED_ITEM('',(#64),#62);
#66=DIRECTION('',(0.E0,0.E0,-1.E0));
#67=VECTOR('',#66,6.4E-1);
#68=CARTESIAN_POINT('',(0.E0,-1.235E1,-2.E-1));
#69=LINE('',#68,#67);
#70=CURVE_STYLE('',#48,POSITIVE_LENGTH_MEASURE(2.E-2),#16);
#71=PRESENTATION_STYLE_ASSIGNMENT((#70));
#72=STYLED_ITEM('',(#71),#69);
#73=DIRECTION('',(0.E0,1.E0,0.E0));
#74=VECTOR('',#73,1.2E1);
#75=CARTESIAN_POINT('',(0.E0,-1.235E1,-8.4E-1));
#76=LINE('',#75,#74);
#77=CURVE_STYLE('',#48,POSITIVE_LENGTH_MEASURE(2.E-2),#16);
#78=PRESENTATION_STYLE_ASSIGNMENT((#77));
#79=STYLED_ITEM('',(#78),#76);
#80=DIRECTION('',(0.E0,0.E0,1.E0));
#81=VECTOR('',#80,6.4E-1);
#82=CARTESIAN_POINT('',(0.E0,-3.5E-1,-8.4E-1));
#83=LINE('',#82,#81);
#84=CURVE_STYLE('',#48,POSITIVE_LENGTH_MEASURE(2.E-2),#16);
#85=PRESENTATION_STYLE_ASSIGNMENT((#84));
#86=STYLED_ITEM('',(#85),#83);
#87=DIRECTION('',(0.E0,1.E0,0.E0));
#88=VECTOR('',#87,3.5E-1);
#89=CARTESIAN_POINT('',(0.E0,-3.5E-1,-2.E-1));
#90=LINE('',#89,#88);
#91=CURVE_STYLE('',#48,POSITIVE_LENGTH_MEASURE(2.E-2),#16);
#92=PRESENTATION_STYLE_ASSIGNMENT((#91));
#93=STYLED_ITEM('',(#92),#90);
#94=DIRECTION('',(0.E0,0.E0,1.E0));
#95=VECTOR('',#94,2.E-1);
#96=CARTESIAN_POINT('',(0.E0,0.E0,-2.E-1));
#97=LINE('',#96,#95);
#98=CURVE_STYLE('',#48,POSITIVE_LENGTH_MEASURE(2.E-2),#16);
#99=PRESENTATION_STYLE_ASSIGNMENT((#98));
#100=STYLED_ITEM('',(#99),#97);
#101=DIRECTION('',(1.E0,0.E0,0.E0));
#102=VECTOR('',#101,1.3E2);
#103=CARTESIAN_POINT('',(0.E0,0.E0,0.E0));
#104=LINE('',#103,#102);
#105=CURVE_STYLE('',#48,POSITIVE_LENGTH_MEASURE(2.E-2),#16);
#106=PRESENTATION_STYLE_ASSIGNMENT((#105));
#107=STYLED_ITEM('',(#106),#104);
#108=DIRECTION('',(1.E0,0.E0,0.E0));
#109=VECTOR('',#108,1.3E2);
#110=CARTESIAN_POINT('',(0.E0,0.E0,-2.E-1));
#111=LINE('',#110,#109);
#112=CURVE_STYLE('',#48,POSITIVE_LENGTH_MEASURE(2.E-2),#16);
#113=PRESENTATION_STYLE_ASSIGNMENT((#112));
#114=STYLED_ITEM('',(#113),#111);
#115=DIRECTION('',(1.E0,0.E0,0.E0));
#116=VECTOR('',#115,1.3E2);
#117=CARTESIAN_POINT('',(0.E0,-3.5E-1,-2.E-1));
#118=LINE('',#117,#116);
#119=CURVE_STYLE('',#48,POSITIVE_LENGTH_MEASURE(2.E-2),#16);
#120=PRESENTATION_STYLE_ASSIGNMENT((#119));
#121=STYLED_ITEM('',(#120),#118);
#122=DIRECTION('',(1.E0,0.E0,0.E0));
#123=VECTOR('',#122,1.3E2);
#124=CARTESIAN_POINT('',(0.E0,-3.5E-1,-8.4E-1));
#125=LINE('',#124,#123);
#126=CURVE_STYLE('',#48,POSITIVE_LENGTH_MEASURE(2.E-2),#16);
#127=PRESENTATION_STYLE_ASSIGNMENT((#126));
#128=STYLED_ITEM('',(#127),#125);
#129=DIRECTION('',(1.E0,0.E0,0.E0));
#130=VECTOR('',#129,1.3E2);
#131=CARTESIAN_POINT('',(0.E0,-1.235E1,-8.4E-1));
#132=LINE('',#131,#130);
#133=CURVE_STYLE('',#48,POSITIVE_LENGTH_MEASURE(2.E-2),#16);
#134=PRESENTATION_STYLE_ASSIGNMENT((#133));
#135=STYLED_ITEM('',(#134),#132);
#136=DIRECTION('',(1.E0,0.E0,0.E0));
#137=VECTOR('',#136,1.3E2);
#138=CARTESIAN_POINT('',(0.E0,-1.235E1,-2.E-1));
#139=LINE('',#138,#137);
#140=CURVE_STYLE('',#48,POSITIVE_LENGTH_MEASURE(2.E-2),#16);
#141=PRESENTATION_STYLE_ASSIGNMENT((#140));
#142=STYLED_ITEM('',(#141),#139);
#143=DIRECTION('',(1.E0,0.E0,0.E0));
#144=VECTOR('',#143,1.3E2);
#145=CARTESIAN_POINT('',(0.E0,-1.27E1,-2.E-1));
#146=LINE('',#145,#144);
#147=CURVE_STYLE('',#48,POSITIVE_LENGTH_MEASURE(2.E-2),#16);
#148=PRESENTATION_STYLE_ASSIGNMENT((#147));
#149=STYLED_ITEM('',(#148),#146);
#150=DIRECTION('',(1.E0,0.E0,0.E0));
#151=VECTOR('',#150,1.3E2);
#152=CARTESIAN_POINT('',(0.E0,-1.27E1,0.E0));
#153=LINE('',#152,#151);
#154=CURVE_STYLE('',#48,POSITIVE_LENGTH_MEASURE(2.E-2),#16);
#155=PRESENTATION_STYLE_ASSIGNMENT((#154));
#156=STYLED_ITEM('',(#155),#153);
#157=DIRECTION('',(0.E0,-1.E0,0.E0));
#158=VECTOR('',#157,1.27E1);
#159=CARTESIAN_POINT('',(1.3E2,0.E0,0.E0));
#160=LINE('',#159,#158);
#161=CURVE_STYLE('',#48,POSITIVE_LENGTH_MEASURE(2.E-2),#16);
#162=PRESENTATION_STYLE_ASSIGNMENT((#161));
#163=STYLED_ITEM('',(#162),#160);
#164=DIRECTION('',(0.E0,0.E0,1.E0));
#165=VECTOR('',#164,2.E-1);
#166=CARTESIAN_POINT('',(1.3E2,0.E0,-2.E-1));
#167=LINE('',#166,#165);
#168=CURVE_STYLE('',#48,POSITIVE_LENGTH_MEASURE(2.E-2),#16);
#169=PRESENTATION_STYLE_ASSIGNMENT((#168));
#170=STYLED_ITEM('',(#169),#167);
#171=DIRECTION('',(0.E0,1.E0,0.E0));
#172=VECTOR('',#171,3.5E-1);
#173=CARTESIAN_POINT('',(1.3E2,-3.5E-1,-2.E-1));
#174=LINE('',#173,#172);
#175=CURVE_STYLE('',#48,POSITIVE_LENGTH_MEASURE(2.E-2),#16);
#176=PRESENTATION_STYLE_ASSIGNMENT((#175));
#177=STYLED_ITEM('',(#176),#174);
#178=DIRECTION('',(0.E0,0.E0,1.E0));
#179=VECTOR('',#178,6.4E-1);
#180=CARTESIAN_POINT('',(1.3E2,-3.5E-1,-8.4E-1));
#181=LINE('',#180,#179);
#182=CURVE_STYLE('',#48,POSITIVE_LENGTH_MEASURE(2.E-2),#16);
#183=PRESENTATION_STYLE_ASSIGNMENT((#182));
#184=STYLED_ITEM('',(#183),#181);
#185=DIRECTION('',(0.E0,1.E0,0.E0));
#186=VECTOR('',#185,1.2E1);
#187=CARTESIAN_POINT('',(1.3E2,-1.235E1,-8.4E-1));
#188=LINE('',#187,#186);
#189=CURVE_STYLE('',#48,POSITIVE_LENGTH_MEASURE(2.E-2),#16);
#190=PRESENTATION_STYLE_ASSIGNMENT((#189));
#191=STYLED_ITEM('',(#190),#188);
#192=DIRECTION('',(0.E0,0.E0,-1.E0));
#193=VECTOR('',#192,6.4E-1);
#194=CARTESIAN_POINT('',(1.3E2,-1.235E1,-2.E-1));
#195=LINE('',#194,#193);
#196=CURVE_STYLE('',#48,POSITIVE_LENGTH_MEASURE(2.E-2),#16);
#197=PRESENTATION_STYLE_ASSIGNMENT((#196));
#198=STYLED_ITEM('',(#197),#195);
#199=DIRECTION('',(0.E0,1.E0,0.E0));
#200=VECTOR('',#199,3.5E-1);
#201=CARTESIAN_POINT('',(1.3E2,-1.27E1,-2.E-1));
#202=LINE('',#201,#200);
#203=CURVE_STYLE('',#48,POSITIVE_LENGTH_MEASURE(2.E-2),#16);
#204=PRESENTATION_STYLE_ASSIGNMENT((#203));
#205=STYLED_ITEM('',(#204),#202);
#206=DIRECTION('',(0.E0,0.E0,-1.E0));
#207=VECTOR('',#206,2.E-1);
#208=CARTESIAN_POINT('',(1.3E2,-1.27E1,0.E0));
#209=LINE('',#208,#207);
#210=CURVE_STYLE('',#48,POSITIVE_LENGTH_MEASURE(2.E-2),#16);
#211=PRESENTATION_STYLE_ASSIGNMENT((#210));
#212=STYLED_ITEM('',(#211),#209);
#213=CARTESIAN_POINT('',(0.E0,0.E0,0.E0));
#214=CARTESIAN_POINT('',(0.E0,-1.27E1,0.E0));
#215=VERTEX_POINT('',#213);
#216=VERTEX_POINT('',#214);
#217=CARTESIAN_POINT('',(0.E0,-1.27E1,-2.E-1));
#218=VERTEX_POINT('',#217);
#219=CARTESIAN_POINT('',(0.E0,-1.235E1,-2.E-1));
#220=VERTEX_POINT('',#219);
#221=CARTESIAN_POINT('',(0.E0,-1.235E1,-8.4E-1));
#222=VERTEX_POINT('',#221);
#223=CARTESIAN_POINT('',(0.E0,-3.5E-1,-8.4E-1));
#224=VERTEX_POINT('',#223);
#225=CARTESIAN_POINT('',(0.E0,-3.5E-1,-2.E-1));
#226=VERTEX_POINT('',#225);
#227=CARTESIAN_POINT('',(0.E0,0.E0,-2.E-1));
#228=VERTEX_POINT('',#227);
#229=CARTESIAN_POINT('',(1.3E2,0.E0,0.E0));
#230=CARTESIAN_POINT('',(1.3E2,-1.27E1,0.E0));
#231=VERTEX_POINT('',#229);
#232=VERTEX_POINT('',#230);
#233=CARTESIAN_POINT('',(1.3E2,-1.27E1,-2.E-1));
#234=VERTEX_POINT('',#233);
#235=CARTESIAN_POINT('',(1.3E2,-1.235E1,-2.E-1));
#236=VERTEX_POINT('',#235);
#237=CARTESIAN_POINT('',(1.3E2,-1.235E1,-8.4E-1));
#238=VERTEX_POINT('',#237);
#239=CARTESIAN_POINT('',(1.3E2,-3.5E-1,-8.4E-1));
#240=VERTEX_POINT('',#239);
#241=CARTESIAN_POINT('',(1.3E2,-3.5E-1,-2.E-1));
#242=VERTEX_POINT('',#241);
#243=CARTESIAN_POINT('',(1.3E2,0.E0,-2.E-1));
#244=VERTEX_POINT('',#243);
#245=CARTESIAN_POINT('',(0.E0,0.E0,0.E0));
#246=DIRECTION('',(1.E0,0.E0,0.E0));
#247=DIRECTION('',(0.E0,1.E0,0.E0));
#248=AXIS2_PLACEMENT_3D('',#245,#246,#247);
#249=PLANE('',#248);
#251=ORIENTED_EDGE('',*,*,#250,.T.);
#253=ORIENTED_EDGE('',*,*,#252,.T.);
#255=ORIENTED_EDGE('',*,*,#254,.T.);
#257=ORIENTED_EDGE('',*,*,#256,.T.);
#259=ORIENTED_EDGE('',*,*,#258,.T.);
#261=ORIENTED_EDGE('',*,*,#260,.T.);
#263=ORIENTED_EDGE('',*,*,#262,.T.);
#265=ORIENTED_EDGE('',*,*,#264,.T.);
#266=EDGE_LOOP('',(#251,#253,#255,#257,#259,#261,#263,#265));
#267=FACE_OUTER_BOUND('',#266,.F.);
#269=CARTESIAN_POINT('',(0.E0,0.E0,0.E0));
#270=DIRECTION('',(0.E0,0.E0,1.E0));
#271=DIRECTION('',(0.E0,-1.E0,0.E0));
#272=AXIS2_PLACEMENT_3D('',#269,#270,#271);
#273=PLANE('',#272);
#274=ORIENTED_EDGE('',*,*,#250,.F.);
#276=ORIENTED_EDGE('',*,*,#275,.T.);
#278=ORIENTED_EDGE('',*,*,#277,.T.);
#280=ORIENTED_EDGE('',*,*,#279,.F.);
#281=EDGE_LOOP('',(#274,#276,#278,#280));
#282=FACE_OUTER_BOUND('',#281,.F.);
#284=CARTESIAN_POINT('',(0.E0,0.E0,-2.E-1));
#285=DIRECTION('',(0.E0,1.E0,0.E0));
#286=DIRECTION('',(0.E0,0.E0,1.E0));
#287=AXIS2_PLACEMENT_3D('',#284,#285,#286);
#288=PLANE('',#287);
#289=ORIENTED_EDGE('',*,*,#264,.F.);
#291=ORIENTED_EDGE('',*,*,#290,.T.);
#293=ORIENTED_EDGE('',*,*,#292,.T.);
#294=ORIENTED_EDGE('',*,*,#275,.F.);
#295=EDGE_LOOP('',(#289,#291,#293,#294));
#296=FACE_OUTER_BOUND('',#295,.F.);
#298=CARTESIAN_POINT('',(0.E0,-3.5E-1,-2.E-1));
#299=DIRECTION('',(0.E0,0.E0,-1.E0));
#300=DIRECTION('',(0.E0,1.E0,0.E0));
#301=AXIS2_PLACEMENT_3D('',#298,#299,#300);
#302=PLANE('',#301);
#303=ORIENTED_EDGE('',*,*,#262,.F.);
#305=ORIENTED_EDGE('',*,*,#304,.T.);
#307=ORIENTED_EDGE('',*,*,#306,.T.);
#308=ORIENTED_EDGE('',*,*,#290,.F.);
#309=EDGE_LOOP('',(#303,#305,#307,#308));
#310=FACE_OUTER_BOUND('',#309,.F.);
#312=CARTESIAN_POINT('',(0.E0,-3.5E-1,-8.4E-1));
#313=DIRECTION('',(0.E0,1.E0,0.E0));
#314=DIRECTION('',(0.E0,0.E0,1.E0));
#315=AXIS2_PLACEMENT_3D('',#312,#313,#314);
#316=PLANE('',#315);
#317=ORIENTED_EDGE('',*,*,#260,.F.);
#319=ORIENTED_EDGE('',*,*,#318,.T.);
#321=ORIENTED_EDGE('',*,*,#320,.T.);
#322=ORIENTED_EDGE('',*,*,#304,.F.);
#323=EDGE_LOOP('',(#317,#319,#321,#322));
#324=FACE_OUTER_BOUND('',#323,.F.);
#326=CARTESIAN_POINT('',(0.E0,-1.235E1,-8.4E-1));
#327=DIRECTION('',(0.E0,0.E0,-1.E0));
#328=DIRECTION('',(0.E0,1.E0,0.E0));
#329=AXIS2_PLACEMENT_3D('',#326,#327,#328);
#330=PLANE('',#329);
#331=ORIENTED_EDGE('',*,*,#258,.F.);
#333=ORIENTED_EDGE('',*,*,#332,.T.);
#335=ORIENTED_EDGE('',*,*,#334,.T.);
#336=ORIENTED_EDGE('',*,*,#318,.F.);
#337=EDGE_LOOP('',(#331,#333,#335,#336));
#338=FACE_OUTER_BOUND('',#337,.F.);
#340=CARTESIAN_POINT('',(0.E0,-1.235E1,-2.E-1));
#341=DIRECTION('',(0.E0,-1.E0,0.E0));
#342=DIRECTION('',(0.E0,0.E0,-1.E0));
#343=AXIS2_PLACEMENT_3D('',#340,#341,#342);
#344=PLANE('',#343);
#345=ORIENTED_EDGE('',*,*,#256,.F.);
#347=ORIENTED_EDGE('',*,*,#346,.T.);
#349=ORIENTED_EDGE('',*,*,#348,.T.);
#350=ORIENTED_EDGE('',*,*,#332,.F.);
#351=EDGE_LOOP('',(#345,#347,#349,#350));
#352=FACE_OUTER_BOUND('',#351,.F.);
#354=CARTESIAN_POINT('',(0.E0,-1.27E1,-2.E-1));
#355=DIRECTION('',(0.E0,0.E0,-1.E0));
#356=DIRECTION('',(0.E0,1.E0,0.E0));
#357=AXIS2_PLACEMENT_3D('',#354,#355,#356);
#358=PLANE('',#357);
#359=ORIENTED_EDGE('',*,*,#254,.F.);
#361=ORIENTED_EDGE('',*,*,#360,.T.);
#363=ORIENTED_EDGE('',*,*,#362,.T.);
#364=ORIENTED_EDGE('',*,*,#346,.F.);
#365=EDGE_LOOP('',(#359,#361,#363,#364));
#366=FACE_OUTER_BOUND('',#365,.F.);
#368=CARTESIAN_POINT('',(0.E0,-1.27E1,0.E0));
#369=DIRECTION('',(0.E0,-1.E0,0.E0));
#370=DIRECTION('',(0.E0,0.E0,-1.E0));
#371=AXIS2_PLACEMENT_3D('',#368,#369,#370);
#372=PLANE('',#371);
#373=ORIENTED_EDGE('',*,*,#252,.F.);
#374=ORIENTED_EDGE('',*,*,#279,.T.);
#376=ORIENTED_EDGE('',*,*,#375,.T.);
#377=ORIENTED_EDGE('',*,*,#360,.F.);
#378=EDGE_LOOP('',(#373,#374,#376,#377));
#379=FACE_OUTER_BOUND('',#378,.F.);
#381=CARTESIAN_POINT('',(1.3E2,0.E0,0.E0));
#382=DIRECTION('',(1.E0,0.E0,0.E0));
#383=DIRECTION('',(0.E0,1.E0,0.E0));
#384=AXIS2_PLACEMENT_3D('',#381,#382,#383);
#385=PLANE('',#384);
#386=ORIENTED_EDGE('',*,*,#277,.F.);
#387=ORIENTED_EDGE('',*,*,#292,.F.);
#388=ORIENTED_EDGE('',*,*,#306,.F.);
#389=ORIENTED_EDGE('',*,*,#320,.F.);
#390=ORIENTED_EDGE('',*,*,#334,.F.);
#391=ORIENTED_EDGE('',*,*,#348,.F.);
#392=ORIENTED_EDGE('',*,*,#362,.F.);
#393=ORIENTED_EDGE('',*,*,#375,.F.);
#394=EDGE_LOOP('',(#386,#387,#388,#389,#390,#391,#392,#393));
#395=FACE_OUTER_BOUND('',#394,.F.);
#397=CLOSED_SHELL('',(#268,#283,#297,#311,#325,#339,#353,#367,#380,#396));
#398=MANIFOLD_SOLID_BREP('',#397);
#399=FILL_AREA_STYLE_COLOUR('',#16);
#400=FILL_AREA_STYLE('',(#399));
#401=SURFACE_STYLE_FILL_AREA(#400);
#402=SURFACE_SIDE_STYLE('',(#401));
#403=SURFACE_STYLE_USAGE(.BOTH.,#402);
#404=PRESENTATION_STYLE_ASSIGNMENT((#403));
#43=STYLED_ITEM('',(#404),#398);
#405=DIRECTION('',(1.E0,0.E0,0.E0));
#406=VECTOR('',#405,1.3E2);
#407=CARTESIAN_POINT('',(0.E0,-4.4E0,0.E0));
#408=LINE('',#407,#406);
#412=CURVE_STYLE('',#48,POSITIVE_LENGTH_MEASURE(2.E-2),#1);
#413=PRESENTATION_STYLE_ASSIGNMENT((#412));
#414=STYLED_ITEM('',(#413),#411);
#416=DIRECTION('',(-1.E0,0.E0,0.E0));
#417=VECTOR('',#416,1.3E2);
#418=CARTESIAN_POINT('',(1.3E2,-8.3E0,0.E0));
#419=LINE('',#418,#417);
#423=CURVE_STYLE('',#48,POSITIVE_LENGTH_MEASURE(2.E-2),#1);
#424=PRESENTATION_STYLE_ASSIGNMENT((#423));
#425=STYLED_ITEM('',(#424),#422);
#426=DIRECTION('',(0.E0,-1.E0,0.E0));
#427=VECTOR('',#426,3.1E0);
#428=CARTESIAN_POINT('',(1.26E1,-8.3E0,0.E0));
#429=LINE('',#428,#427);
#431=CURVE_STYLE('',#48,POSITIVE_LENGTH_MEASURE(2.E-2),#1);
#432=PRESENTATION_STYLE_ASSIGNMENT((#431));
#433=STYLED_ITEM('',(#432),#430);
#435=DIRECTION('',(1.E0,0.E0,0.E0));
#436=VECTOR('',#435,4.8E0);
#437=CARTESIAN_POINT('',(1.26E1,-1.14E1,0.E0));
#438=LINE('',#437,#436);
#440=CURVE_STYLE('',#48,POSITIVE_LENGTH_MEASURE(2.E-2),#1);
#441=PRESENTATION_STYLE_ASSIGNMENT((#440));
#442=STYLED_ITEM('',(#441),#439);
#444=DIRECTION('',(0.E0,1.E0,0.E0));
#445=VECTOR('',#444,3.1E0);
#446=CARTESIAN_POINT('',(1.74E1,-1.14E1,0.E0));
#447=LINE('',#446,#445);
#449=CURVE_STYLE('',#48,POSITIVE_LENGTH_MEASURE(2.E-2),#1);
#450=PRESENTATION_STYLE_ASSIGNMENT((#449));
#451=STYLED_ITEM('',(#450),#448);
#454=DIRECTION('',(0.E0,-1.E0,0.E0));
#455=VECTOR('',#454,3.1E0);
#456=CARTESIAN_POINT('',(1.126E2,-8.3E0,0.E0));
#457=LINE('',#456,#455);
#459=CURVE_STYLE('',#48,POSITIVE_LENGTH_MEASURE(2.E-2),#1);
#460=PRESENTATION_STYLE_ASSIGNMENT((#459));
#461=STYLED_ITEM('',(#460),#458);
#463=DIRECTION('',(1.E0,0.E0,0.E0));
#464=VECTOR('',#463,4.8E0);
#465=CARTESIAN_POINT('',(1.126E2,-1.14E1,0.E0));
#466=LINE('',#465,#464);
#468=CURVE_STYLE('',#48,POSITIVE_LENGTH_MEASURE(2.E-2),#1);
#469=PRESENTATION_STYLE_ASSIGNMENT((#468));
#470=STYLED_ITEM('',(#469),#467);
#472=DIRECTION('',(0.E0,1.E0,0.E0));
#473=VECTOR('',#472,3.1E0);
#474=CARTESIAN_POINT('',(1.174E2,-1.14E1,0.E0));
#475=LINE('',#474,#473);
#477=CURVE_STYLE('',#48,POSITIVE_LENGTH_MEASURE(2.E-2),#1);
#478=PRESENTATION_STYLE_ASSIGNMENT((#477));
#479=STYLED_ITEM('',(#478),#476);
#482=PRESENTATION_LAYER_ASSIGNMENT('SK_TEILUNG','',(#411,#422));
#485=PLANE_ANGLE_MEASURE_WITH_UNIT(PLANE_ANGLE_MEASURE(1.745329251994E-2),#484);
#486=(CONVERSION_BASED_UNIT('DEGREE',#485)NAMED_UNIT(*)PLANE_ANGLE_UNIT());
#488=UNCERTAINTY_MEASURE_WITH_UNIT(LENGTH_MEASURE(1.E-2),#483,
'distance_accuracy_value',
'Maximum model space distance between geometric entities at asserted connectivities');
#415=GEOMETRIC_SET('',(#411,#422,#453,#481));
#492=CARTESIAN_POINT('',(0.E0,0.E0,0.E0));
#493=DIRECTION('',(0.E0,0.E0,1.E0));
#494=DIRECTION('',(1.E0,0.E0,0.E0));
#497=SHAPE_REPRESENTATION_RELATIONSHIP('','',#496,#490);
#498=SHAPE_REPRESENTATION_RELATIONSHIP('','',#496,#491);
#499=MECHANICAL_DESIGN_GEOMETRIC_PRESENTATION_REPRESENTATION('',(#51,#58,#65,
#72,#79,#86,#93,#100,#107,#114,#121,#128,#135,#142,#149,#156,#163,#170,#177,
#184,#191,#198,#205,#212,#43,#414,#425,#433,#442,#451,#461,#470,#479),#489);
#500=APPLICATION_CONTEXT('automotive_design');
#501=APPLICATION_PROTOCOL_DEFINITION('international standard',
'automotive_design',2001,#500);
#502=PRODUCT_DEFINITION_CONTEXT('part definition',#500,'design');
#503=PRODUCT_CONTEXT('',#500,'mechanical');
#504=PRODUCT('543195-01-Z01','543195-01-Z01','NOT SPECIFIED',(#503));
#505=PRODUCT_DEFINITION_FORMATION('1','LAST_VERSION',#504);
#513=DERIVED_UNIT_ELEMENT(#512,2.E0);
#514=DERIVED_UNIT((#513));
#515=MEASURE_REPRESENTATION_ITEM('surface area measure',AREA_MEASURE(3.54084E3),
#514);
#520=DERIVED_UNIT_ELEMENT(#519,3.E0);
#521=DERIVED_UNIT((#520));
#522=MEASURE_REPRESENTATION_ITEM('volume measure',VOLUME_MEASURE(1.3286E3),
#521);
#526=CARTESIAN_POINT('centre point',(6.5E1,-6.35E0,-4.156164383562E-1));
#531=DERIVED_UNIT_ELEMENT(#530,2.E0);
#532=DERIVED_UNIT((#531));
#533=MEASURE_REPRESENTATION_ITEM('surface area measure',AREA_MEASURE(3.54084E3),
#532);
#538=DERIVED_UNIT_ELEMENT(#537,3.E0);
#539=DERIVED_UNIT((#538));
#540=MEASURE_REPRESENTATION_ITEM('volume measure',VOLUME_MEASURE(1.3286E3),
#539);
#544=CARTESIAN_POINT('centre point',(6.5E1,-6.35E0,-4.156164383562E-1));
#549=PRODUCT_RELATED_PRODUCT_CATEGORY('part','',(#504));
#1=DRAUGHTING_PRE_DEFINED_COLOUR('black');
#2=DRAUGHTING_PRE_DEFINED_COLOUR('blue');
#3=DRAUGHTING_PRE_DEFINED_COLOUR('green');
#4=COLOUR_RGB('',1.1765E-2,3.13725E-1,0.E0);
#5=COLOUR_RGB('',4.8967E-2,8.05825E-1,1.31099E-1);
#6=COLOUR_RGB('',1.15733E-1,1.22747E-1,1.31068E-1);
#7=COLOUR_RGB('',1.3E-1,1.3E-1,1.3E-1);
#8=COLOUR_RGB('',1.5E-1,1.5E-1,1.5E-1);
#9=COLOUR_RGB('',2.5E-1,2.2E-1,3.3E-1);
#10=COLOUR_RGB('',2.54E-1,6.E-3,5.7E-1);
#11=COLOUR_RGB('',2.67E-1,7.2E-1,1.52E-1);
#12=COLOUR_RGB('',3.4E-1,2.57E-1,2.11E-1);
#13=COLOUR_RGB('',3.56863E-1,3.56863E-1,3.56863E-1);
#14=COLOUR_RGB('',3.8E-1,3.61E-1,3.38E-1);
#15=COLOUR_RGB('',3.88E-1,8.22E-1,9.02E-1);
#16=COLOUR_RGB('',5.01961E-1,5.01961E-1,5.01961E-1);
#17=COLOUR_RGB('',6.35294E-1,6.86275E-1,7.4902E-1);
#18=COLOUR_RGB('',6.59E-1,3.18E-1,0.E0);
#19=COLOUR_RGB('',6.60108E-1,7.00114E-1,7.47573E-1);
#20=COLOUR_RGB('',6.7E-1,9.14E-1,9.3E-1);
#21=COLOUR_RGB('',7.E-1,2.4E-1,3.1E-1);
#22=COLOUR_RGB('',7.41176E-1,6.82353E-1,6.54902E-1);
#23=COLOUR_RGB('',7.52941E-1,7.52941E-1,7.52941E-1);
#24=COLOUR_RGB('',7.6E-1,7.8E-1,7.6E-1);
#25=COLOUR_RGB('',7.9E-1,1.E0,9.12E-1);
#26=COLOUR_RGB('',8.31E-1,8.08E-1,8.6E-1);
#27=COLOUR_RGB('',8.5E-1,9.73E-1,1.E0);
#28=COLOUR_RGB('',8.784E-1,9.49E-1,1.E0);
#29=COLOUR_RGB('',8.94118E-1,8.7451E-1,8.58824E-1);
#30=COLOUR_RGB('',8.97432E-1,9.47792E-1,9.66019E-1);
#31=COLOUR_RGB('',9.2E-1,1.E0,9.66E-1);
#32=COLOUR_RGB('',9.3E-1,7.69E-1,4.56E-1);
#33=COLOUR_RGB('',9.4E-1,8.E-1,6.6E-2);
#34=COLOUR_RGB('',9.5E-1,9.13E-1,8.17E-1);
#35=COLOUR_RGB('',9.52941E-1,9.37255E-1,9.33333E-1);
#36=COLOUR_RGB('',9.56863E-1,9.92157E-1,1.E0);
#37=COLOUR_RGB('',9.80583E-1,1.48319E-1,1.9371E-2);
#38=DRAUGHTING_PRE_DEFINED_COLOUR('red');
#39=COLOUR_RGB('',1.E0,6.59E-1,0.E0);
#40=COLOUR_RGB('',1.E0,6.701E-1,1.58803E-1);
#41=DRAUGHTING_PRE_DEFINED_COLOUR('yellow');
#42=DRAUGHTING_PRE_DEFINED_COLOUR('white');
#250=EDGE_CURVE('',#215,#216,#47,.T.);
#252=EDGE_CURVE('',#216,#218,#55,.T.);
#254=EDGE_CURVE('',#218,#220,#62,.T.);
#256=EDGE_CURVE('',#220,#222,#69,.T.);
#258=EDGE_CURVE('',#222,#224,#76,.T.);
#260=EDGE_CURVE('',#224,#226,#83,.T.);
#262=EDGE_CURVE('',#226,#228,#90,.T.);
#264=EDGE_CURVE('',#228,#215,#97,.T.);
#268=ADVANCED_FACE('',(#267),#249,.F.);
#275=EDGE_CURVE('',#215,#231,#104,.T.);
#277=EDGE_CURVE('',#231,#232,#160,.T.);
#279=EDGE_CURVE('',#216,#232,#153,.T.);
#283=ADVANCED_FACE('',(#282),#273,.T.);
#290=EDGE_CURVE('',#228,#244,#111,.T.);
#292=EDGE_CURVE('',#244,#231,#167,.T.);
#297=ADVANCED_FACE('',(#296),#288,.T.);
#304=EDGE_CURVE('',#226,#242,#118,.T.);
#306=EDGE_CURVE('',#242,#244,#174,.T.);
#311=ADVANCED_FACE('',(#310),#302,.T.);
#318=EDGE_CURVE('',#224,#240,#125,.T.);
#320=EDGE_CURVE('',#240,#242,#181,.T.);
#325=ADVANCED_FACE('',(#324),#316,.T.);
#332=EDGE_CURVE('',#222,#238,#132,.T.);
#334=EDGE_CURVE('',#238,#240,#188,.T.);
#339=ADVANCED_FACE('',(#338),#330,.T.);
#346=EDGE_CURVE('',#220,#236,#139,.T.);
#348=EDGE_CURVE('',#236,#238,#195,.T.);
#353=ADVANCED_FACE('',(#352),#344,.T.);
#360=EDGE_CURVE('',#218,#234,#146,.T.);
#362=EDGE_CURVE('',#234,#236,#202,.T.);
#367=ADVANCED_FACE('',(#366),#358,.T.);
#375=EDGE_CURVE('',#232,#234,#209,.T.);
#380=ADVANCED_FACE('',(#379),#372,.T.);
#396=ADVANCED_FACE('',(#395),#385,.T.);
#409=TRIMMED_CURVE('',#408,(PARAMETER_VALUE(0.E0)),(PARAMETER_VALUE(1.E0)),.T.,
.UNSPECIFIED.);
#410=COMPOSITE_CURVE_SEGMENT(.CONTINUOUS.,.T.,#409);
#411=COMPOSITE_CURVE('',(#410),.F.);
#420=TRIMMED_CURVE('',#419,(PARAMETER_VALUE(0.E0)),(PARAMETER_VALUE(1.E0)),.T.,
.UNSPECIFIED.);
#421=COMPOSITE_CURVE_SEGMENT(.CONTINUOUS.,.T.,#420);
#422=COMPOSITE_CURVE('',(#421),.F.);
#430=TRIMMED_CURVE('',#429,(PARAMETER_VALUE(0.E0)),(PARAMETER_VALUE(1.E0)),.T.,
.UNSPECIFIED.);
#434=COMPOSITE_CURVE_SEGMENT(.CONTINUOUS.,.T.,#430);
#439=TRIMMED_CURVE('',#438,(PARAMETER_VALUE(0.E0)),(PARAMETER_VALUE(1.E0)),.T.,
.UNSPECIFIED.);
#443=COMPOSITE_CURVE_SEGMENT(.CONTINUOUS.,.T.,#439);
#448=TRIMMED_CURVE('',#447,(PARAMETER_VALUE(0.E0)),(PARAMETER_VALUE(1.E0)),.T.,
.UNSPECIFIED.);
#452=COMPOSITE_CURVE_SEGMENT(.CONTINUOUS.,.T.,#448);
#453=COMPOSITE_CURVE('',(#434,#443,#452),.F.);
#458=TRIMMED_CURVE('',#457,(PARAMETER_VALUE(0.E0)),(PARAMETER_VALUE(1.E0)),.T.,
.UNSPECIFIED.);
#462=COMPOSITE_CURVE_SEGMENT(.CONTINUOUS.,.T.,#458);
#467=TRIMMED_CURVE('',#466,(PARAMETER_VALUE(0.E0)),(PARAMETER_VALUE(1.E0)),.T.,
.UNSPECIFIED.);
#471=COMPOSITE_CURVE_SEGMENT(.CONTINUOUS.,.T.,#467);
#476=TRIMMED_CURVE('',#475,(PARAMETER_VALUE(0.E0)),(PARAMETER_VALUE(1.E0)),.T.,
.UNSPECIFIED.);
#480=COMPOSITE_CURVE_SEGMENT(.CONTINUOUS.,.T.,#476);
#481=COMPOSITE_CURVE('',(#462,#471,#480),.F.);
#483=(LENGTH_UNIT()NAMED_UNIT(*)SI_UNIT(.MILLI.,.METRE.));
#484=(NAMED_UNIT(*)PLANE_ANGLE_UNIT()SI_UNIT($,.RADIAN.));
#487=(NAMED_UNIT(*)SI_UNIT($,.STERADIAN.)SOLID_ANGLE_UNIT());
#489=(GEOMETRIC_REPRESENTATION_CONTEXT(3)GLOBAL_UNCERTAINTY_ASSIGNED_CONTEXT((
#488))GLOBAL_UNIT_ASSIGNED_CONTEXT((#483,#486,#487))REPRESENTATION_CONTEXT
('ID1','3'));
#490=ADVANCED_BREP_SHAPE_REPRESENTATION('',(#398),#489);
#491=GEOMETRICALLY_BOUNDED_SURFACE_SHAPE_REPRESENTATION('',(#415),#489);
#495=AXIS2_PLACEMENT_3D('',#492,#493,#494);
#496=SHAPE_REPRESENTATION('',(#495),#489);
#506=PRODUCT_DEFINITION('part definition','',#505,#502);
#507=PRODUCT_DEFINITION_SHAPE('','SHAPE FOR 543195-01-Z01.',#506);
#508=SHAPE_ASPECT('','solid data associated with 543195-01-Z01',#507,.F.);
#509=PROPERTY_DEFINITION('',
'shape for solid data with which properties are associated',#508);
#510=SHAPE_REPRESENTATION('',(#398),#489);
#511=SHAPE_DEFINITION_REPRESENTATION(#509,#510);
#512=(LENGTH_UNIT()NAMED_UNIT(*)SI_UNIT(.MILLI.,.METRE.));
#516=PROPERTY_DEFINITION('geometric validation property',
'area of 543195-01-Z01',#508);
#517=REPRESENTATION('surface area',(#515),#489);
#518=PROPERTY_DEFINITION_REPRESENTATION(#516,#517);
#519=(LENGTH_UNIT()NAMED_UNIT(*)SI_UNIT(.MILLI.,.METRE.));
#523=PROPERTY_DEFINITION('geometric validation property',
'volume of 543195-01-Z01',#508);
#524=REPRESENTATION('volume',(#522),#489);
#525=PROPERTY_DEFINITION_REPRESENTATION(#523,#524);
#527=PROPERTY_DEFINITION('geometric validation property',
'centroid of 543195-01-Z01',#508);
#528=REPRESENTATION('centroid',(#526),#489);
#529=PROPERTY_DEFINITION_REPRESENTATION(#527,#528);
#530=(LENGTH_UNIT()NAMED_UNIT(*)SI_UNIT(.MILLI.,.METRE.));
#534=PROPERTY_DEFINITION('geometric validation property',
'area of 543195-01-Z01',#507);
#535=REPRESENTATION('surface area',(#533),#489);
#536=PROPERTY_DEFINITION_REPRESENTATION(#534,#535);
#537=(LENGTH_UNIT()NAMED_UNIT(*)SI_UNIT(.MILLI.,.METRE.));
#541=PROPERTY_DEFINITION('geometric validation property',
'volume of 543195-01-Z01',#507);
#542=REPRESENTATION('volume',(#540),#489);
#543=PROPERTY_DEFINITION_REPRESENTATION(#541,#542);
#545=PROPERTY_DEFINITION('geometric validation property',
'centroid of 543195-01-Z01',#507);
#546=REPRESENTATION('centroid',(#544),#489);
#547=PROPERTY_DEFINITION_REPRESENTATION(#545,#546);
#548=SHAPE_DEFINITION_REPRESENTATION(#507,#496);
ENDSEC;
END-ISO-10303-21;
