ISO-10303-21;
HEADER;
FILE_DESCRIPTION((''),'2;1');
FILE_NAME('1277676-01-Z01','2021-05-07T08:14:36',('AT10150'),(''),
'CREO PARAMETRIC BY PTC INC, 2019164','CREO PARAMETRIC BY PTC INC, 2019164','');
FILE_SCHEMA(('AUTOMOTIVE_DESIGN { 1 0 10303 214 1 1 1 1 }'));
ENDSEC;
DATA;
#44=DIRECTION('',(0.E0,1.E0,0.E0));
#45=VECTOR('',#44,8.E0);
#46=CARTESIAN_POINT('',(-4.608934680287E1,0.E0,1.938484230745E1));
#47=LINE('',#46,#45);
#48=DRAUGHTING_PRE_DEFINED_CURVE_FONT('continuous');
#49=CURVE_STYLE('',#48,POSITIVE_LENGTH_MEASURE(2.E-2),#16);
#50=PRESENTATION_STYLE_ASSIGNMENT((#49));
#51=STYLED_ITEM('',(#50),#47);
#52=DIRECTION('',(-9.217869360574E-1,0.E0,3.876968461491E-1));
#53=VECTOR('',#52,2.5E-1);
#54=CARTESIAN_POINT('',(-4.585890006885E1,0.E0,1.928791809592E1));
#55=LINE('',#54,#53);
#56=CURVE_STYLE('',#48,POSITIVE_LENGTH_MEASURE(2.E-2),#16);
#57=PRESENTATION_STYLE_ASSIGNMENT((#56));
#58=STYLED_ITEM('',(#57),#55);
#59=DIRECTION('',(0.E0,-1.E0,0.E0));
#60=VECTOR('',#59,5.E-1);
#61=CARTESIAN_POINT('',(-4.585890006885E1,5.E-1,1.928791809592E1));
#62=LINE('',#61,#60);
#63=CURVE_STYLE('',#48,POSITIVE_LENGTH_MEASURE(2.E-2),#16);
#64=PRESENTATION_STYLE_ASSIGNMENT((#63));
#65=STYLED_ITEM('',(#64),#62);
#66=DIRECTION('',(-9.217869360574E-1,0.E0,3.876968461491E-1));
#67=VECTOR('',#66,2.E-1);
#68=CARTESIAN_POINT('',(-4.567454268164E1,5.E-1,1.921037872669E1));
#69=LINE('',#68,#67);
#70=CURVE_STYLE('',#48,POSITIVE_LENGTH_MEASURE(2.E-2),#16);
#71=PRESENTATION_STYLE_ASSIGNMENT((#70));
#72=STYLED_ITEM('',(#71),#69);
#73=DIRECTION('',(0.E0,-1.E0,0.E0));
#74=VECTOR('',#73,7.E0);
#75=CARTESIAN_POINT('',(-4.567454268164E1,7.5E0,1.921037872669E1));
#76=LINE('',#75,#74);
#77=CURVE_STYLE('',#48,POSITIVE_LENGTH_MEASURE(2.E-2),#16);
#78=PRESENTATION_STYLE_ASSIGNMENT((#77));
#79=STYLED_ITEM('',(#78),#76);
#80=DIRECTION('',(9.217869360574E-1,0.E0,-3.876968461491E-1));
#81=VECTOR('',#80,2.E-1);
#82=CARTESIAN_POINT('',(-4.585890006885E1,7.5E0,1.928791809592E1));
#83=LINE('',#82,#81);
#84=CURVE_STYLE('',#48,POSITIVE_LENGTH_MEASURE(2.E-2),#16);
#85=PRESENTATION_STYLE_ASSIGNMENT((#84));
#86=STYLED_ITEM('',(#85),#83);
#87=DIRECTION('',(0.E0,-1.E0,0.E0));
#88=VECTOR('',#87,5.E-1);
#89=CARTESIAN_POINT('',(-4.585890006885E1,8.E0,1.928791809592E1));
#90=LINE('',#89,#88);
#91=CURVE_STYLE('',#48,POSITIVE_LENGTH_MEASURE(2.E-2),#16);
#92=PRESENTATION_STYLE_ASSIGNMENT((#91));
#93=STYLED_ITEM('',(#92),#90);
#94=DIRECTION('',(9.217869360574E-1,0.E0,-3.876968461491E-1));
#95=VECTOR('',#94,2.5E-1);
#96=CARTESIAN_POINT('',(-4.608934680287E1,8.E0,1.938484230745E1));
#97=LINE('',#96,#95);
#98=CURVE_STYLE('',#48,POSITIVE_LENGTH_MEASURE(2.E-2),#16);
#99=PRESENTATION_STYLE_ASSIGNMENT((#98));
#100=STYLED_ITEM('',(#99),#97);
#101=CARTESIAN_POINT('',(0.E0,0.E0,0.E0));
#102=DIRECTION('',(0.E0,1.E0,0.E0));
#103=DIRECTION('',(-9.217869360574E-1,0.E0,3.876968461491E-1));
#104=AXIS2_PLACEMENT_3D('',#101,#102,#103);
#106=CURVE_STYLE('',#48,POSITIVE_LENGTH_MEASURE(2.E-2),#16);
#107=PRESENTATION_STYLE_ASSIGNMENT((#106));
#108=STYLED_ITEM('',(#107),#105);
#109=CARTESIAN_POINT('',(0.E0,8.E0,0.E0));
#110=DIRECTION('',(0.E0,1.E0,0.E0));
#111=DIRECTION('',(-9.217869360574E-1,0.E0,3.876968461491E-1));
#112=AXIS2_PLACEMENT_3D('',#109,#110,#111);
#114=CURVE_STYLE('',#48,POSITIVE_LENGTH_MEASURE(2.E-2),#16);
#115=PRESENTATION_STYLE_ASSIGNMENT((#114));
#116=STYLED_ITEM('',(#115),#113);
#117=CARTESIAN_POINT('',(0.E0,8.E0,0.E0));
#118=DIRECTION('',(0.E0,1.E0,0.E0));
#119=DIRECTION('',(-9.217869360574E-1,0.E0,3.876968461491E-1));
#120=AXIS2_PLACEMENT_3D('',#117,#118,#119);
#122=CURVE_STYLE('',#48,POSITIVE_LENGTH_MEASURE(2.E-2),#16);
#123=PRESENTATION_STYLE_ASSIGNMENT((#122));
#124=STYLED_ITEM('',(#123),#121);
#125=CARTESIAN_POINT('',(0.E0,7.5E0,0.E0));
#126=DIRECTION('',(0.E0,1.E0,0.E0));
#127=DIRECTION('',(-9.217869360574E-1,0.E0,3.876968461491E-1));
#128=AXIS2_PLACEMENT_3D('',#125,#126,#127);
#130=CURVE_STYLE('',#48,POSITIVE_LENGTH_MEASURE(2.E-2),#16);
#131=PRESENTATION_STYLE_ASSIGNMENT((#130));
#132=STYLED_ITEM('',(#131),#129);
#133=CARTESIAN_POINT('',(0.E0,7.5E0,0.E0));
#134=DIRECTION('',(0.E0,1.E0,0.E0));
#135=DIRECTION('',(-9.217869360574E-1,0.E0,3.876968461491E-1));
#136=AXIS2_PLACEMENT_3D('',#133,#134,#135);
#138=CURVE_STYLE('',#48,POSITIVE_LENGTH_MEASURE(2.E-2),#16);
#139=PRESENTATION_STYLE_ASSIGNMENT((#138));
#140=STYLED_ITEM('',(#139),#137);
#141=CARTESIAN_POINT('',(0.E0,5.E-1,0.E0));
#142=DIRECTION('',(0.E0,1.E0,0.E0));
#143=DIRECTION('',(-9.217869360574E-1,0.E0,3.876968461491E-1));
#144=AXIS2_PLACEMENT_3D('',#141,#142,#143);
#146=CURVE_STYLE('',#48,POSITIVE_LENGTH_MEASURE(2.E-2),#16);
#147=PRESENTATION_STYLE_ASSIGNMENT((#146));
#148=STYLED_ITEM('',(#147),#145);
#149=CARTESIAN_POINT('',(0.E0,5.E-1,0.E0));
#150=DIRECTION('',(0.E0,1.E0,0.E0));
#151=DIRECTION('',(-9.217869360574E-1,0.E0,3.876968461491E-1));
#152=AXIS2_PLACEMENT_3D('',#149,#150,#151);
#154=CURVE_STYLE('',#48,POSITIVE_LENGTH_MEASURE(2.E-2),#16);
#155=PRESENTATION_STYLE_ASSIGNMENT((#154));
#156=STYLED_ITEM('',(#155),#153);
#157=CARTESIAN_POINT('',(0.E0,0.E0,0.E0));
#158=DIRECTION('',(0.E0,1.E0,0.E0));
#159=DIRECTION('',(-9.217869360574E-1,0.E0,3.876968461491E-1));
#160=AXIS2_PLACEMENT_3D('',#157,#158,#159);
#162=CURVE_STYLE('',#48,POSITIVE_LENGTH_MEASURE(2.E-2),#16);
#163=PRESENTATION_STYLE_ASSIGNMENT((#162));
#164=STYLED_ITEM('',(#163),#161);
#165=DIRECTION('',(0.E0,1.E0,0.E0));
#166=VECTOR('',#165,8.E0);
#167=CARTESIAN_POINT('',(4.608934680287E1,1.694421443295E-14,1.938484230745E1));
#168=LINE('',#167,#166);
#169=CURVE_STYLE('',#48,POSITIVE_LENGTH_MEASURE(2.E-2),#16);
#170=PRESENTATION_STYLE_ASSIGNMENT((#169));
#171=STYLED_ITEM('',(#170),#168);
#172=DIRECTION('',(-9.217869360574E-1,0.E0,-3.876968461491E-1));
#173=VECTOR('',#172,2.5E-1);
#174=CARTESIAN_POINT('',(4.608934680287E1,8.E0,1.938484230745E1));
#175=LINE('',#174,#173);
#176=CURVE_STYLE('',#48,POSITIVE_LENGTH_MEASURE(2.E-2),#16);
#177=PRESENTATION_STYLE_ASSIGNMENT((#176));
#178=STYLED_ITEM('',(#177),#175);
#179=DIRECTION('',(1.421085471520E-14,-1.E0,0.E0));
#180=VECTOR('',#179,5.E-1);
#181=CARTESIAN_POINT('',(4.585890006885E1,8.E0,1.928791809592E1));
#182=LINE('',#181,#180);
#183=CURVE_STYLE('',#48,POSITIVE_LENGTH_MEASURE(2.E-2),#16);
#184=PRESENTATION_STYLE_ASSIGNMENT((#183));
#185=STYLED_ITEM('',(#184),#182);
#186=DIRECTION('',(-9.217869360574E-1,0.E0,-3.876968461491E-1));
#187=VECTOR('',#186,2.E-1);
#188=CARTESIAN_POINT('',(4.585890006885E1,7.5E0,1.928791809592E1));
#189=LINE('',#188,#187);
#190=CURVE_STYLE('',#48,POSITIVE_LENGTH_MEASURE(2.E-2),#16);
#191=PRESENTATION_STYLE_ASSIGNMENT((#190));
#192=STYLED_ITEM('',(#191),#189);
#193=DIRECTION('',(0.E0,-1.E0,0.E0));
#194=VECTOR('',#193,7.E0);
#195=CARTESIAN_POINT('',(4.567454268164E1,7.5E0,1.921037872669E1));
#196=LINE('',#195,#194);
#197=CURVE_STYLE('',#48,POSITIVE_LENGTH_MEASURE(2.E-2),#16);
#198=PRESENTATION_STYLE_ASSIGNMENT((#197));
#199=STYLED_ITEM('',(#198),#196);
#200=DIRECTION('',(9.217869360574E-1,0.E0,3.876968461491E-1));
#201=VECTOR('',#200,2.E-1);
#202=CARTESIAN_POINT('',(4.567454268164E1,5.E-1,1.921037872669E1));
#203=LINE('',#202,#201);
#204=CURVE_STYLE('',#48,POSITIVE_LENGTH_MEASURE(2.E-2),#16);
#205=PRESENTATION_STYLE_ASSIGNMENT((#204));
#206=STYLED_ITEM('',(#205),#203);
#207=DIRECTION('',(1.421085471520E-14,-1.E0,0.E0));
#208=VECTOR('',#207,5.E-1);
#209=CARTESIAN_POINT('',(4.585890006885E1,5.E-1,1.928791809592E1));
#210=LINE('',#209,#208);
#211=CURVE_STYLE('',#48,POSITIVE_LENGTH_MEASURE(2.E-2),#16);
#212=PRESENTATION_STYLE_ASSIGNMENT((#211));
#213=STYLED_ITEM('',(#212),#210);
#214=DIRECTION('',(9.217869360574E-1,0.E0,3.876968461491E-1));
#215=VECTOR('',#214,2.5E-1);
#216=CARTESIAN_POINT('',(4.585890006885E1,1.693350822909E-14,1.928791809592E1));
#217=LINE('',#216,#215);
#218=CURVE_STYLE('',#48,POSITIVE_LENGTH_MEASURE(2.E-2),#16);
#219=PRESENTATION_STYLE_ASSIGNMENT((#218));
#220=STYLED_ITEM('',(#219),#217);
#221=CARTESIAN_POINT('',(-4.608934680287E1,0.E0,1.938484230745E1));
#222=CARTESIAN_POINT('',(-4.608934680287E1,8.E0,1.938484230745E1));
#223=VERTEX_POINT('',#221);
#224=VERTEX_POINT('',#222);
#225=CARTESIAN_POINT('',(-4.585890006885E1,8.E0,1.928791809592E1));
#226=VERTEX_POINT('',#225);
#227=CARTESIAN_POINT('',(-4.585890006885E1,7.5E0,1.928791809592E1));
#228=VERTEX_POINT('',#227);
#229=CARTESIAN_POINT('',(-4.567454268164E1,7.5E0,1.921037872669E1));
#230=VERTEX_POINT('',#229);
#231=CARTESIAN_POINT('',(-4.567454268164E1,5.E-1,1.921037872669E1));
#232=VERTEX_POINT('',#231);
#233=CARTESIAN_POINT('',(-4.585890006885E1,5.E-1,1.928791809592E1));
#234=VERTEX_POINT('',#233);
#235=CARTESIAN_POINT('',(-4.585890006885E1,0.E0,1.928791809592E1));
#236=VERTEX_POINT('',#235);
#237=CARTESIAN_POINT('',(4.608934680287E1,1.694421443295E-14,1.938484230745E1));
#238=CARTESIAN_POINT('',(4.608934680287E1,8.E0,1.938484230745E1));
#239=VERTEX_POINT('',#237);
#240=VERTEX_POINT('',#238);
#241=CARTESIAN_POINT('',(4.585890006885E1,8.E0,1.928791809592E1));
#242=VERTEX_POINT('',#241);
#243=CARTESIAN_POINT('',(4.585890006885E1,7.5E0,1.928791809592E1));
#244=VERTEX_POINT('',#243);
#245=CARTESIAN_POINT('',(4.567454268164E1,7.5E0,1.921037872669E1));
#246=VERTEX_POINT('',#245);
#247=CARTESIAN_POINT('',(4.567454268164E1,5.E-1,1.921037872669E1));
#248=VERTEX_POINT('',#247);
#249=CARTESIAN_POINT('',(4.585890006885E1,5.E-1,1.928791809592E1));
#250=VERTEX_POINT('',#249);
#251=CARTESIAN_POINT('',(4.585890006885E1,1.693090112553E-14,1.928791809592E1));
#252=VERTEX_POINT('',#251);
#253=CARTESIAN_POINT('',(0.E0,8.4E0,0.E0));
#254=DIRECTION('',(-3.876968461491E-1,0.E0,-9.217869360574E-1));
#255=DIRECTION('',(9.217869360574E-1,0.E0,-3.876968461491E-1));
#256=AXIS2_PLACEMENT_3D('',#253,#254,#255);
#257=PLANE('',#256);
#259=ORIENTED_EDGE('',*,*,#258,.F.);
#261=ORIENTED_EDGE('',*,*,#260,.F.);
#263=ORIENTED_EDGE('',*,*,#262,.F.);
#265=ORIENTED_EDGE('',*,*,#264,.F.);
#267=ORIENTED_EDGE('',*,*,#266,.F.);
#269=ORIENTED_EDGE('',*,*,#268,.F.);
#271=ORIENTED_EDGE('',*,*,#270,.F.);
#273=ORIENTED_EDGE('',*,*,#272,.F.);
#274=EDGE_LOOP('',(#259,#261,#263,#265,#267,#269,#271,#273));
#275=FACE_OUTER_BOUND('',#274,.F.);
#277=CARTESIAN_POINT('',(0.E0,8.4E0,0.E0));
#278=DIRECTION('',(0.E0,-1.E0,0.E0));
#279=DIRECTION('',(9.217869360574E-1,0.E0,-3.876968461491E-1));
#280=AXIS2_PLACEMENT_3D('',#277,#278,#279);
#281=CYLINDRICAL_SURFACE('',#280,5.E1);
#282=ORIENTED_EDGE('',*,*,#258,.T.);
#284=ORIENTED_EDGE('',*,*,#283,.T.);
#286=ORIENTED_EDGE('',*,*,#285,.F.);
#288=ORIENTED_EDGE('',*,*,#287,.F.);
#289=EDGE_LOOP('',(#282,#284,#286,#288));
#290=FACE_OUTER_BOUND('',#289,.F.);
#292=CARTESIAN_POINT('',(0.E0,8.E0,0.E0));
#293=DIRECTION('',(0.E0,-1.E0,0.E0));
#294=DIRECTION('',(9.217869360574E-1,0.E0,-3.876968461491E-1));
#295=AXIS2_PLACEMENT_3D('',#292,#293,#294);
#296=PLANE('',#295);
#297=ORIENTED_EDGE('',*,*,#272,.T.);
#299=ORIENTED_EDGE('',*,*,#298,.T.);
#301=ORIENTED_EDGE('',*,*,#300,.F.);
#302=ORIENTED_EDGE('',*,*,#283,.F.);
#303=EDGE_LOOP('',(#297,#299,#301,#302));
#304=FACE_OUTER_BOUND('',#303,.F.);
#306=CARTESIAN_POINT('',(0.E0,8.4E0,0.E0));
#307=DIRECTION('',(0.E0,-1.E0,0.E0));
#308=DIRECTION('',(9.217869360574E-1,0.E0,-3.876968461491E-1));
#309=AXIS2_PLACEMENT_3D('',#306,#307,#308);
#310=CYLINDRICAL_SURFACE('',#309,4.975E1);
#311=ORIENTED_EDGE('',*,*,#270,.T.);
#313=ORIENTED_EDGE('',*,*,#312,.T.);
#315=ORIENTED_EDGE('',*,*,#314,.F.);
#316=ORIENTED_EDGE('',*,*,#298,.F.);
#317=EDGE_LOOP('',(#311,#313,#315,#316));
#318=FACE_OUTER_BOUND('',#317,.F.);
#320=CARTESIAN_POINT('',(0.E0,7.5E0,0.E0));
#321=DIRECTION('',(0.E0,-1.E0,0.E0));
#322=DIRECTION('',(9.217869360574E-1,0.E0,-3.876968461491E-1));
#323=AXIS2_PLACEMENT_3D('',#320,#321,#322);
#324=PLANE('',#323);
#325=ORIENTED_EDGE('',*,*,#268,.T.);
#327=ORIENTED_EDGE('',*,*,#326,.T.);
#329=ORIENTED_EDGE('',*,*,#328,.F.);
#330=ORIENTED_EDGE('',*,*,#312,.F.);
#331=EDGE_LOOP('',(#325,#327,#329,#330));
#332=FACE_OUTER_BOUND('',#331,.F.);
#334=CARTESIAN_POINT('',(0.E0,8.4E0,0.E0));
#335=DIRECTION('',(0.E0,-1.E0,0.E0));
#336=DIRECTION('',(9.217869360574E-1,0.E0,-3.876968461491E-1));
#337=AXIS2_PLACEMENT_3D('',#334,#335,#336);
#338=CYLINDRICAL_SURFACE('',#337,4.955E1);
#339=ORIENTED_EDGE('',*,*,#266,.T.);
#341=ORIENTED_EDGE('',*,*,#340,.T.);
#343=ORIENTED_EDGE('',*,*,#342,.F.);
#344=ORIENTED_EDGE('',*,*,#326,.F.);
#345=EDGE_LOOP('',(#339,#341,#343,#344));
#346=FACE_OUTER_BOUND('',#345,.F.);
#348=CARTESIAN_POINT('',(0.E0,5.E-1,0.E0));
#349=DIRECTION('',(0.E0,-1.E0,0.E0));
#350=DIRECTION('',(9.217869360574E-1,0.E0,-3.876968461491E-1));
#351=AXIS2_PLACEMENT_3D('',#348,#349,#350);
#352=PLANE('',#351);
#353=ORIENTED_EDGE('',*,*,#264,.T.);
#355=ORIENTED_EDGE('',*,*,#354,.T.);
#357=ORIENTED_EDGE('',*,*,#356,.F.);
#358=ORIENTED_EDGE('',*,*,#340,.F.);
#359=EDGE_LOOP('',(#353,#355,#357,#358));
#360=FACE_OUTER_BOUND('',#359,.F.);
#362=CARTESIAN_POINT('',(0.E0,8.4E0,0.E0));
#363=DIRECTION('',(0.E0,-1.E0,0.E0));
#364=DIRECTION('',(9.217869360574E-1,0.E0,-3.876968461491E-1));
#365=AXIS2_PLACEMENT_3D('',#362,#363,#364);
#366=CYLINDRICAL_SURFACE('',#365,4.975E1);
#367=ORIENTED_EDGE('',*,*,#262,.T.);
#369=ORIENTED_EDGE('',*,*,#368,.T.);
#371=ORIENTED_EDGE('',*,*,#370,.F.);
#372=ORIENTED_EDGE('',*,*,#354,.F.);
#373=EDGE_LOOP('',(#367,#369,#371,#372));
#374=FACE_OUTER_BOUND('',#373,.F.);
#376=CARTESIAN_POINT('',(0.E0,0.E0,0.E0));
#377=DIRECTION('',(0.E0,-1.E0,0.E0));
#378=DIRECTION('',(9.217869360574E-1,0.E0,-3.876968461491E-1));
#379=AXIS2_PLACEMENT_3D('',#376,#377,#378);
#380=PLANE('',#379);
#381=ORIENTED_EDGE('',*,*,#260,.T.);
#382=ORIENTED_EDGE('',*,*,#287,.T.);
#384=ORIENTED_EDGE('',*,*,#383,.F.);
#385=ORIENTED_EDGE('',*,*,#368,.F.);
#386=EDGE_LOOP('',(#381,#382,#384,#385));
#387=FACE_OUTER_BOUND('',#386,.F.);
#389=CARTESIAN_POINT('',(0.E0,8.4E0,0.E0));
#390=DIRECTION('',(-3.876968461491E-1,0.E0,9.217869360574E-1));
#391=DIRECTION('',(-9.217869360574E-1,0.E0,-3.876968461491E-1));
#392=AXIS2_PLACEMENT_3D('',#389,#390,#391);
#393=PLANE('',#392);
#394=ORIENTED_EDGE('',*,*,#285,.T.);
#395=ORIENTED_EDGE('',*,*,#300,.T.);
#396=ORIENTED_EDGE('',*,*,#314,.T.);
#397=ORIENTED_EDGE('',*,*,#328,.T.);
#398=ORIENTED_EDGE('',*,*,#342,.T.);
#399=ORIENTED_EDGE('',*,*,#356,.T.);
#400=ORIENTED_EDGE('',*,*,#370,.T.);
#401=ORIENTED_EDGE('',*,*,#383,.T.);
#402=EDGE_LOOP('',(#394,#395,#396,#397,#398,#399,#400,#401));
#403=FACE_OUTER_BOUND('',#402,.F.);
#405=CLOSED_SHELL('',(#276,#291,#305,#319,#333,#347,#361,#375,#388,#404));
#406=MANIFOLD_SOLID_BREP('',#405);
#407=FILL_AREA_STYLE_COLOUR('',#16);
#408=FILL_AREA_STYLE('',(#407));
#409=SURFACE_STYLE_FILL_AREA(#408);
#410=SURFACE_SIDE_STYLE('',(#409));
#411=SURFACE_STYLE_USAGE(.BOTH.,#410);
#412=PRESENTATION_STYLE_ASSIGNMENT((#411));
#43=STYLED_ITEM('',(#412),#406);
#413=CARTESIAN_POINT('',(0.E0,2.7E0,0.E0));
#414=DIRECTION('',(0.E0,1.E0,0.E0));
#415=DIRECTION('',(-8.784767401017E-1,0.E0,4.777851160305E-1));
#416=AXIS2_PLACEMENT_3D('',#413,#414,#415);
#421=CURVE_STYLE('',#48,POSITIVE_LENGTH_MEASURE(2.E-2),#1);
#422=PRESENTATION_STYLE_ASSIGNMENT((#421));
#423=STYLED_ITEM('',(#422),#420);
#425=CARTESIAN_POINT('',(0.E0,5.3E0,0.E0));
#426=DIRECTION('',(0.E0,1.E0,0.E0));
#427=DIRECTION('',(-8.784767401017E-1,0.E0,4.777851160305E-1));
#428=AXIS2_PLACEMENT_3D('',#425,#426,#427);
#433=CURVE_STYLE('',#48,POSITIVE_LENGTH_MEASURE(2.E-2),#1);
#434=PRESENTATION_STYLE_ASSIGNMENT((#433));
#435=STYLED_ITEM('',(#434),#432);
#436=DIRECTION('',(0.E0,1.E0,0.E0));
#437=VECTOR('',#436,2.6E0);
#438=CARTESIAN_POINT('',(-4.392383700508E1,2.7E0,2.388925580153E1));
#439=LINE('',#438,#437);
#443=CURVE_STYLE('',#48,POSITIVE_LENGTH_MEASURE(2.E-2),#1);
#444=PRESENTATION_STYLE_ASSIGNMENT((#443));
#445=STYLED_ITEM('',(#444),#442);
#446=DIRECTION('',(0.E0,1.E0,-1.639714005600E-14));
#447=VECTOR('',#446,2.6E0);
#448=CARTESIAN_POINT('',(4.392383700508E1,2.7E0,2.388925580153E1));
#449=LINE('',#448,#447);
#453=CURVE_STYLE('',#48,POSITIVE_LENGTH_MEASURE(2.E-2),#1);
#454=PRESENTATION_STYLE_ASSIGNMENT((#453));
#455=STYLED_ITEM('',(#454),#452);
#456=DIRECTION('',(0.E0,-1.E0,0.E0));
#457=VECTOR('',#456,2.38E0);
#458=CARTESIAN_POINT('',(-3.893734855501E1,2.68E0,3.136690752219E1));
#459=LINE('',#458,#457);
#461=CURVE_STYLE('',#48,POSITIVE_LENGTH_MEASURE(2.E-2),#1);
#462=PRESENTATION_STYLE_ASSIGNMENT((#461));
#463=STYLED_ITEM('',(#462),#460);
#465=CARTESIAN_POINT('',(0.E0,3.E-1,0.E0));
#466=DIRECTION('',(0.E0,1.E0,0.E0));
#467=DIRECTION('',(-7.787469711001E-1,0.E0,6.273381504439E-1));
#468=AXIS2_PLACEMENT_3D('',#465,#466,#467);
#471=CURVE_STYLE('',#48,POSITIVE_LENGTH_MEASURE(2.E-2),#1);
#472=PRESENTATION_STYLE_ASSIGNMENT((#471));
#473=STYLED_ITEM('',(#472),#470);
#475=DIRECTION('',(0.E0,1.E0,0.E0));
#476=VECTOR('',#475,2.38E0);
#477=CARTESIAN_POINT('',(-3.765177333563E1,3.E-1,3.289899640843E1));
#478=LINE('',#477,#476);
#480=CURVE_STYLE('',#48,POSITIVE_LENGTH_MEASURE(2.E-2),#1);
#481=PRESENTATION_STYLE_ASSIGNMENT((#480));
#482=STYLED_ITEM('',(#481),#479);
#484=CARTESIAN_POINT('',(0.E0,2.68E0,0.E0));
#485=DIRECTION('',(0.E0,-1.E0,0.E0));
#486=DIRECTION('',(-7.530354667127E-1,0.E0,6.579799281687E-1));
#487=AXIS2_PLACEMENT_3D('',#484,#485,#486);
#490=CURVE_STYLE('',#48,POSITIVE_LENGTH_MEASURE(2.E-2),#1);
#491=PRESENTATION_STYLE_ASSIGNMENT((#490));
#492=STYLED_ITEM('',(#491),#489);
#495=PRESENTATION_LAYER_ASSIGNMENT('SK_TEILUNG','',(#420,#432));
#498=PLANE_ANGLE_MEASURE_WITH_UNIT(PLANE_ANGLE_MEASURE(1.745329251994E-2),#497);
#499=(CONVERSION_BASED_UNIT('DEGREE',#498)NAMED_UNIT(*)PLANE_ANGLE_UNIT());
#501=UNCERTAINTY_MEASURE_WITH_UNIT(LENGTH_MEASURE(1.E-2),#496,
'distance_accuracy_value',
'Maximum model space distance between geometric entities at asserted connectivities');
#424=GEOMETRIC_SET('',(#420,#432,#442,#452,#494));
#505=CARTESIAN_POINT('',(0.E0,0.E0,0.E0));
#506=DIRECTION('',(0.E0,0.E0,1.E0));
#507=DIRECTION('',(1.E0,0.E0,0.E0));
#510=SHAPE_REPRESENTATION_RELATIONSHIP('','',#509,#503);
#511=SHAPE_REPRESENTATION_RELATIONSHIP('','',#509,#504);
#512=MECHANICAL_DESIGN_GEOMETRIC_PRESENTATION_REPRESENTATION('',(#51,#58,#65,
#72,#79,#86,#93,#100,#108,#116,#124,#132,#140,#148,#156,#164,#171,#178,#185,
#192,#199,#206,#213,#220,#43,#423,#435,#445,#455,#463,#473,#482,#492),#502);
#513=APPLICATION_CONTEXT('automotive_design');
#514=APPLICATION_PROTOCOL_DEFINITION('international standard',
'automotive_design',2001,#513);
#515=PRODUCT_DEFINITION_CONTEXT('part definition',#513,'design');
#516=PRODUCT_CONTEXT('',#513,'mechanical');
#517=PRODUCT('1277676-01-Z01','1277676-01-Z01','NOT SPECIFIED',(#516));
#518=PRODUCT_DEFINITION_FORMATION('1','LAST_VERSION',#517);
#526=DERIVED_UNIT_ELEMENT(#525,2.E0);
#527=DERIVED_UNIT((#526));
#528=MEASURE_REPRESENTATION_ITEM('surface area measure',AREA_MEASURE(
1.980154169305E3),#527);
#533=DERIVED_UNIT_ELEMENT(#532,3.E0);
#534=DERIVED_UNIT((#533));
#535=MEASURE_REPRESENTATION_ITEM('volume measure',VOLUME_MEASURE(
3.969704291926E2),#534);
#539=CARTESIAN_POINT('centre point',(1.653819303726E-9,4.E0,3.913227257376E1));
#544=DERIVED_UNIT_ELEMENT(#543,2.E0);
#545=DERIVED_UNIT((#544));
#546=MEASURE_REPRESENTATION_ITEM('surface area measure',AREA_MEASURE(
1.980154169305E3),#545);
#551=DERIVED_UNIT_ELEMENT(#550,3.E0);
#552=DERIVED_UNIT((#551));
#553=MEASURE_REPRESENTATION_ITEM('volume measure',VOLUME_MEASURE(
3.969704291926E2),#552);
#557=CARTESIAN_POINT('centre point',(1.653819303726E-9,4.E0,3.913227257376E1));
#562=PRODUCT_RELATED_PRODUCT_CATEGORY('part','',(#517));
#1=DRAUGHTING_PRE_DEFINED_COLOUR('black');
#2=DRAUGHTING_PRE_DEFINED_COLOUR('blue');
#3=DRAUGHTING_PRE_DEFINED_COLOUR('green');
#4=COLOUR_RGB('',1.1765E-2,3.13725E-1,0.E0);
#5=COLOUR_RGB('',4.8967E-2,8.05825E-1,1.31099E-1);
#6=COLOUR_RGB('',1.15733E-1,1.22747E-1,1.31068E-1);
#7=COLOUR_RGB('',1.3E-1,1.3E-1,1.3E-1);
#8=COLOUR_RGB('',1.5E-1,1.5E-1,1.5E-1);
#9=COLOUR_RGB('',2.5E-1,2.2E-1,3.3E-1);
#10=COLOUR_RGB('',2.54E-1,6.E-3,5.7E-1);
#11=COLOUR_RGB('',2.67E-1,7.2E-1,1.52E-1);
#12=COLOUR_RGB('',3.4E-1,2.57E-1,2.11E-1);
#13=COLOUR_RGB('',3.56863E-1,3.56863E-1,3.56863E-1);
#14=COLOUR_RGB('',3.8E-1,3.61E-1,3.38E-1);
#15=COLOUR_RGB('',3.88E-1,8.22E-1,9.02E-1);
#16=COLOUR_RGB('',5.01961E-1,5.01961E-1,5.01961E-1);
#17=COLOUR_RGB('',6.35294E-1,6.86275E-1,7.4902E-1);
#18=COLOUR_RGB('',6.59E-1,3.18E-1,0.E0);
#19=COLOUR_RGB('',6.60108E-1,7.00114E-1,7.47573E-1);
#20=COLOUR_RGB('',6.7E-1,9.14E-1,9.3E-1);
#21=COLOUR_RGB('',7.E-1,2.4E-1,3.1E-1);
#22=COLOUR_RGB('',7.41176E-1,6.82353E-1,6.54902E-1);
#23=COLOUR_RGB('',7.52941E-1,7.52941E-1,7.52941E-1);
#24=COLOUR_RGB('',7.6E-1,7.8E-1,7.6E-1);
#25=COLOUR_RGB('',7.9E-1,1.E0,9.12E-1);
#26=COLOUR_RGB('',8.31E-1,8.08E-1,8.6E-1);
#27=COLOUR_RGB('',8.5E-1,9.73E-1,1.E0);
#28=COLOUR_RGB('',8.784E-1,9.49E-1,1.E0);
#29=COLOUR_RGB('',8.94118E-1,8.7451E-1,8.58824E-1);
#30=COLOUR_RGB('',8.97432E-1,9.47792E-1,9.66019E-1);
#31=COLOUR_RGB('',9.2E-1,1.E0,9.66E-1);
#32=COLOUR_RGB('',9.3E-1,7.69E-1,4.56E-1);
#33=COLOUR_RGB('',9.4E-1,8.E-1,6.6E-2);
#34=COLOUR_RGB('',9.5E-1,9.13E-1,8.17E-1);
#35=COLOUR_RGB('',9.52941E-1,9.37255E-1,9.33333E-1);
#36=COLOUR_RGB('',9.56863E-1,9.92157E-1,1.E0);
#37=COLOUR_RGB('',9.80583E-1,1.48319E-1,1.9371E-2);
#38=DRAUGHTING_PRE_DEFINED_COLOUR('red');
#39=COLOUR_RGB('',1.E0,6.59E-1,0.E0);
#40=COLOUR_RGB('',1.E0,6.701E-1,1.58803E-1);
#41=DRAUGHTING_PRE_DEFINED_COLOUR('yellow');
#42=DRAUGHTING_PRE_DEFINED_COLOUR('white');
#105=CIRCLE('',#104,5.E1);
#113=CIRCLE('',#112,5.E1);
#121=CIRCLE('',#120,4.975E1);
#129=CIRCLE('',#128,4.975E1);
#137=CIRCLE('',#136,4.955E1);
#145=CIRCLE('',#144,4.955E1);
#153=CIRCLE('',#152,4.975E1);
#161=CIRCLE('',#160,4.975E1);
#258=EDGE_CURVE('',#223,#224,#47,.T.);
#260=EDGE_CURVE('',#236,#223,#55,.T.);
#262=EDGE_CURVE('',#234,#236,#62,.T.);
#264=EDGE_CURVE('',#232,#234,#69,.T.);
#266=EDGE_CURVE('',#230,#232,#76,.T.);
#268=EDGE_CURVE('',#228,#230,#83,.T.);
#270=EDGE_CURVE('',#226,#228,#90,.T.);
#272=EDGE_CURVE('',#224,#226,#97,.T.);
#276=ADVANCED_FACE('',(#275),#257,.T.);
#283=EDGE_CURVE('',#224,#240,#113,.T.);
#285=EDGE_CURVE('',#239,#240,#168,.T.);
#287=EDGE_CURVE('',#223,#239,#105,.T.);
#291=ADVANCED_FACE('',(#290),#281,.T.);
#298=EDGE_CURVE('',#226,#242,#121,.T.);
#300=EDGE_CURVE('',#240,#242,#175,.T.);
#305=ADVANCED_FACE('',(#304),#296,.F.);
#312=EDGE_CURVE('',#228,#244,#129,.T.);
#314=EDGE_CURVE('',#242,#244,#182,.T.);
#319=ADVANCED_FACE('',(#318),#310,.F.);
#326=EDGE_CURVE('',#230,#246,#137,.T.);
#328=EDGE_CURVE('',#244,#246,#189,.T.);
#333=ADVANCED_FACE('',(#332),#324,.F.);
#340=EDGE_CURVE('',#232,#248,#145,.T.);
#342=EDGE_CURVE('',#246,#248,#196,.T.);
#347=ADVANCED_FACE('',(#346),#338,.F.);
#354=EDGE_CURVE('',#234,#250,#153,.T.);
#356=EDGE_CURVE('',#248,#250,#203,.T.);
#361=ADVANCED_FACE('',(#360),#352,.T.);
#368=EDGE_CURVE('',#236,#252,#161,.T.);
#370=EDGE_CURVE('',#250,#252,#210,.T.);
#375=ADVANCED_FACE('',(#374),#366,.F.);
#383=EDGE_CURVE('',#252,#239,#217,.T.);
#388=ADVANCED_FACE('',(#387),#380,.T.);
#404=ADVANCED_FACE('',(#403),#393,.F.);
#417=CIRCLE('',#416,5.E1);
#418=TRIMMED_CURVE('',#417,(PARAMETER_VALUE(0.E0)),(PARAMETER_VALUE(
1.229183118052E2)),.T.,.UNSPECIFIED.);
#419=COMPOSITE_CURVE_SEGMENT(.CONTINUOUS.,.T.,#418);
#420=COMPOSITE_CURVE('',(#419),.F.);
#429=CIRCLE('',#428,5.E1);
#430=TRIMMED_CURVE('',#429,(PARAMETER_VALUE(0.E0)),(PARAMETER_VALUE(
1.229183118052E2)),.T.,.UNSPECIFIED.);
#431=COMPOSITE_CURVE_SEGMENT(.CONTINUOUS.,.T.,#430);
#432=COMPOSITE_CURVE('',(#431),.F.);
#440=TRIMMED_CURVE('',#439,(PARAMETER_VALUE(0.E0)),(PARAMETER_VALUE(1.E0)),.T.,
.UNSPECIFIED.);
#441=COMPOSITE_CURVE_SEGMENT(.CONTINUOUS.,.T.,#440);
#442=COMPOSITE_CURVE('',(#441),.F.);
#450=TRIMMED_CURVE('',#449,(PARAMETER_VALUE(0.E0)),(PARAMETER_VALUE(1.E0)),.T.,
.UNSPECIFIED.);
#451=COMPOSITE_CURVE_SEGMENT(.CONTINUOUS.,.T.,#450);
#452=COMPOSITE_CURVE('',(#451),.F.);
#460=TRIMMED_CURVE('',#459,(PARAMETER_VALUE(0.E0)),(PARAMETER_VALUE(1.E0)),.T.,
.UNSPECIFIED.);
#464=COMPOSITE_CURVE_SEGMENT(.CONTINUOUS.,.T.,#460);
#469=CIRCLE('',#468,5.E1);
#470=TRIMMED_CURVE('',#469,(PARAMETER_VALUE(0.E0)),(PARAMETER_VALUE(
2.291983996777E0)),.T.,.UNSPECIFIED.);
#474=COMPOSITE_CURVE_SEGMENT(.CONTINUOUS.,.T.,#470);
#479=TRIMMED_CURVE('',#478,(PARAMETER_VALUE(0.E0)),(PARAMETER_VALUE(1.E0)),.T.,
.UNSPECIFIED.);
#483=COMPOSITE_CURVE_SEGMENT(.CONTINUOUS.,.T.,#479);
#488=CIRCLE('',#487,5.E1);
#489=TRIMMED_CURVE('',#488,(PARAMETER_VALUE(0.E0)),(PARAMETER_VALUE(
2.291983996777E0)),.T.,.UNSPECIFIED.);
#493=COMPOSITE_CURVE_SEGMENT(.CONTINUOUS.,.T.,#489);
#494=COMPOSITE_CURVE('',(#464,#474,#483,#493),.F.);
#496=(LENGTH_UNIT()NAMED_UNIT(*)SI_UNIT(.MILLI.,.METRE.));
#497=(NAMED_UNIT(*)PLANE_ANGLE_UNIT()SI_UNIT($,.RADIAN.));
#500=(NAMED_UNIT(*)SI_UNIT($,.STERADIAN.)SOLID_ANGLE_UNIT());
#502=(GEOMETRIC_REPRESENTATION_CONTEXT(3)GLOBAL_UNCERTAINTY_ASSIGNED_CONTEXT((
#501))GLOBAL_UNIT_ASSIGNED_CONTEXT((#496,#499,#500))REPRESENTATION_CONTEXT
('ID1','3'));
#503=ADVANCED_BREP_SHAPE_REPRESENTATION('',(#406),#502);
#504=GEOMETRICALLY_BOUNDED_SURFACE_SHAPE_REPRESENTATION('',(#424),#502);
#508=AXIS2_PLACEMENT_3D('',#505,#506,#507);
#509=SHAPE_REPRESENTATION('',(#508),#502);
#519=PRODUCT_DEFINITION('part definition','',#518,#515);
#520=PRODUCT_DEFINITION_SHAPE('','SHAPE FOR 1277676-01-Z01.',#519);
#521=SHAPE_ASPECT('','solid data associated with 1277676-01-Z01',#520,.F.);
#522=PROPERTY_DEFINITION('',
'shape for solid data with which properties are associated',#521);
#523=SHAPE_REPRESENTATION('',(#406),#502);
#524=SHAPE_DEFINITION_REPRESENTATION(#522,#523);
#525=(LENGTH_UNIT()NAMED_UNIT(*)SI_UNIT(.MILLI.,.METRE.));
#529=PROPERTY_DEFINITION('geometric validation property',
'area of 1277676-01-Z01',#521);
#530=REPRESENTATION('surface area',(#528),#502);
#531=PROPERTY_DEFINITION_REPRESENTATION(#529,#530);
#532=(LENGTH_UNIT()NAMED_UNIT(*)SI_UNIT(.MILLI.,.METRE.));
#536=PROPERTY_DEFINITION('geometric validation property',
'volume of 1277676-01-Z01',#521);
#537=REPRESENTATION('volume',(#535),#502);
#538=PROPERTY_DEFINITION_REPRESENTATION(#536,#537);
#540=PROPERTY_DEFINITION('geometric validation property',
'centroid of 1277676-01-Z01',#521);
#541=REPRESENTATION('centroid',(#539),#502);
#542=PROPERTY_DEFINITION_REPRESENTATION(#540,#541);
#543=(LENGTH_UNIT()NAMED_UNIT(*)SI_UNIT(.MILLI.,.METRE.));
#547=PROPERTY_DEFINITION('geometric validation property',
'area of 1277676-01-Z01',#520);
#548=REPRESENTATION('surface area',(#546),#502);
#549=PROPERTY_DEFINITION_REPRESENTATION(#547,#548);
#550=(LENGTH_UNIT()NAMED_UNIT(*)SI_UNIT(.MILLI.,.METRE.));
#554=PROPERTY_DEFINITION('geometric validation property',
'volume of 1277676-01-Z01',#520);
#555=REPRESENTATION('volume',(#553),#502);
#556=PROPERTY_DEFINITION_REPRESENTATION(#554,#555);
#558=PROPERTY_DEFINITION('geometric validation property',
'centroid of 1277676-01-Z01',#520);
#559=REPRESENTATION('centroid',(#557),#502);
#560=PROPERTY_DEFINITION_REPRESENTATION(#558,#559);
#561=SHAPE_DEFINITION_REPRESENTATION(#520,#509);
ENDSEC;
END-ISO-10303-21;
