ISO-10303-21;
HEADER;
FILE_DESCRIPTION((''),'2;1');
FILE_NAME('1343749-01-Z01','2021-06-14T14:55:06',('AT10150'),(''),
'CREO PARAMETRIC BY PTC INC, 2019164','CREO PARAMETRIC BY PTC INC, 2019164','');
FILE_SCHEMA(('AUTOMOTIVE_DESIGN { 1 0 10303 214 1 1 1 1 }'));
ENDSEC;
DATA;
#43=CARTESIAN_POINT('',(0.E0,0.E0,0.E0));
#44=DIRECTION('',(0.E0,1.E0,0.E0));
#45=DIRECTION('',(1.E0,0.E0,0.E0));
#46=AXIS2_PLACEMENT_3D('',#43,#44,#45);
#48=DRAUGHTING_PRE_DEFINED_CURVE_FONT('continuous');
#49=CURVE_STYLE('',#48,POSITIVE_LENGTH_MEASURE(2.E-2),#16);
#50=PRESENTATION_STYLE_ASSIGNMENT((#49));
#51=STYLED_ITEM('',(#50),#47);
#52=CARTESIAN_POINT('',(0.E0,0.E0,0.E0));
#53=DIRECTION('',(0.E0,1.E0,0.E0));
#54=DIRECTION('',(-1.E0,0.E0,0.E0));
#55=AXIS2_PLACEMENT_3D('',#52,#53,#54);
#57=CURVE_STYLE('',#48,POSITIVE_LENGTH_MEASURE(2.E-2),#16);
#58=PRESENTATION_STYLE_ASSIGNMENT((#57));
#59=STYLED_ITEM('',(#58),#56);
#60=CARTESIAN_POINT('',(0.E0,0.E0,0.E0));
#61=DIRECTION('',(0.E0,-1.E0,0.E0));
#62=DIRECTION('',(1.E0,0.E0,0.E0));
#63=AXIS2_PLACEMENT_3D('',#60,#61,#62);
#65=CURVE_STYLE('',#48,POSITIVE_LENGTH_MEASURE(2.E-2),#16);
#66=PRESENTATION_STYLE_ASSIGNMENT((#65));
#67=STYLED_ITEM('',(#66),#64);
#68=CARTESIAN_POINT('',(0.E0,0.E0,0.E0));
#69=DIRECTION('',(0.E0,-1.E0,0.E0));
#70=DIRECTION('',(-1.E0,0.E0,0.E0));
#71=AXIS2_PLACEMENT_3D('',#68,#69,#70);
#73=CURVE_STYLE('',#48,POSITIVE_LENGTH_MEASURE(2.E-2),#16);
#74=PRESENTATION_STYLE_ASSIGNMENT((#73));
#75=STYLED_ITEM('',(#74),#72);
#76=DIRECTION('',(0.E0,1.E0,0.E0));
#77=VECTOR('',#76,8.E0);
#78=CARTESIAN_POINT('',(1.14385E2,0.E0,1.400812241205E-14));
#79=LINE('',#78,#77);
#80=CURVE_STYLE('',#48,POSITIVE_LENGTH_MEASURE(2.E-2),#16);
#81=PRESENTATION_STYLE_ASSIGNMENT((#80));
#82=STYLED_ITEM('',(#81),#79);
#83=DIRECTION('',(0.E0,1.E0,0.E0));
#84=VECTOR('',#83,8.E0);
#85=CARTESIAN_POINT('',(-1.14385E2,0.E0,-1.400812241205E-14));
#86=LINE('',#85,#84);
#87=CURVE_STYLE('',#48,POSITIVE_LENGTH_MEASURE(2.E-2),#16);
#88=PRESENTATION_STYLE_ASSIGNMENT((#87));
#89=STYLED_ITEM('',(#88),#86);
#90=CARTESIAN_POINT('',(0.E0,8.E0,0.E0));
#91=DIRECTION('',(0.E0,1.E0,0.E0));
#92=DIRECTION('',(1.E0,0.E0,0.E0));
#93=AXIS2_PLACEMENT_3D('',#90,#91,#92);
#95=CURVE_STYLE('',#48,POSITIVE_LENGTH_MEASURE(2.E-2),#16);
#96=PRESENTATION_STYLE_ASSIGNMENT((#95));
#97=STYLED_ITEM('',(#96),#94);
#98=CARTESIAN_POINT('',(0.E0,8.E0,0.E0));
#99=DIRECTION('',(0.E0,1.E0,0.E0));
#100=DIRECTION('',(-1.E0,0.E0,0.E0));
#101=AXIS2_PLACEMENT_3D('',#98,#99,#100);
#103=CURVE_STYLE('',#48,POSITIVE_LENGTH_MEASURE(2.E-2),#16);
#104=PRESENTATION_STYLE_ASSIGNMENT((#103));
#105=STYLED_ITEM('',(#104),#102);
#106=CARTESIAN_POINT('',(0.E0,8.E0,0.E0));
#107=DIRECTION('',(0.E0,-1.E0,0.E0));
#108=DIRECTION('',(1.E0,0.E0,0.E0));
#109=AXIS2_PLACEMENT_3D('',#106,#107,#108);
#111=CURVE_STYLE('',#48,POSITIVE_LENGTH_MEASURE(2.E-2),#16);
#112=PRESENTATION_STYLE_ASSIGNMENT((#111));
#113=STYLED_ITEM('',(#112),#110);
#114=CARTESIAN_POINT('',(0.E0,8.E0,0.E0));
#115=DIRECTION('',(0.E0,-1.E0,0.E0));
#116=DIRECTION('',(-1.E0,0.E0,0.E0));
#117=AXIS2_PLACEMENT_3D('',#114,#115,#116);
#119=CURVE_STYLE('',#48,POSITIVE_LENGTH_MEASURE(2.E-2),#16);
#120=PRESENTATION_STYLE_ASSIGNMENT((#119));
#121=STYLED_ITEM('',(#120),#118);
#122=DIRECTION('',(0.E0,1.E0,0.E0));
#123=VECTOR('',#122,8.E0);
#124=CARTESIAN_POINT('',(1.14135E2,0.E0,1.397750624207E-14));
#125=LINE('',#124,#123);
#126=CURVE_STYLE('',#48,POSITIVE_LENGTH_MEASURE(2.E-2),#16);
#127=PRESENTATION_STYLE_ASSIGNMENT((#126));
#128=STYLED_ITEM('',(#127),#125);
#129=DIRECTION('',(0.E0,1.E0,0.E0));
#130=VECTOR('',#129,8.E0);
#131=CARTESIAN_POINT('',(-1.14135E2,0.E0,-1.397750624207E-14));
#132=LINE('',#131,#130);
#133=CURVE_STYLE('',#48,POSITIVE_LENGTH_MEASURE(2.E-2),#16);
#134=PRESENTATION_STYLE_ASSIGNMENT((#133));
#135=STYLED_ITEM('',(#134),#132);
#136=CARTESIAN_POINT('',(1.14385E2,0.E0,1.400812241205E-14));
#137=CARTESIAN_POINT('',(-1.14385E2,0.E0,-2.801624482409E-14));
#138=VERTEX_POINT('',#136);
#139=VERTEX_POINT('',#137);
#140=CARTESIAN_POINT('',(1.14135E2,0.E0,1.397750624207E-14));
#141=CARTESIAN_POINT('',(-1.14135E2,0.E0,0.E0));
#142=VERTEX_POINT('',#140);
#143=VERTEX_POINT('',#141);
#144=CARTESIAN_POINT('',(1.14385E2,8.E0,1.400812241205E-14));
#145=CARTESIAN_POINT('',(-1.14385E2,8.E0,-2.801624482409E-14));
#146=VERTEX_POINT('',#144);
#147=VERTEX_POINT('',#145);
#148=CARTESIAN_POINT('',(1.14135E2,8.E0,1.397750624207E-14));
#149=CARTESIAN_POINT('',(-1.14135E2,8.E0,0.E0));
#150=VERTEX_POINT('',#148);
#151=VERTEX_POINT('',#149);
#152=CARTESIAN_POINT('',(0.E0,0.E0,0.E0));
#153=DIRECTION('',(0.E0,1.E0,0.E0));
#154=DIRECTION('',(1.E0,0.E0,0.E0));
#155=AXIS2_PLACEMENT_3D('',#152,#153,#154);
#156=PLANE('',#155);
#158=ORIENTED_EDGE('',*,*,#157,.T.);
#160=ORIENTED_EDGE('',*,*,#159,.T.);
#161=EDGE_LOOP('',(#158,#160));
#162=FACE_OUTER_BOUND('',#161,.F.);
#164=ORIENTED_EDGE('',*,*,#163,.T.);
#166=ORIENTED_EDGE('',*,*,#165,.T.);
#167=EDGE_LOOP('',(#164,#166));
#168=FACE_BOUND('',#167,.F.);
#170=CARTESIAN_POINT('',(0.E0,0.E0,0.E0));
#171=DIRECTION('',(0.E0,1.E0,0.E0));
#172=DIRECTION('',(1.E0,0.E0,0.E0));
#173=AXIS2_PLACEMENT_3D('',#170,#171,#172);
#174=CYLINDRICAL_SURFACE('',#173,1.14385E2);
#175=ORIENTED_EDGE('',*,*,#157,.F.);
#177=ORIENTED_EDGE('',*,*,#176,.T.);
#179=ORIENTED_EDGE('',*,*,#178,.T.);
#181=ORIENTED_EDGE('',*,*,#180,.F.);
#182=EDGE_LOOP('',(#175,#177,#179,#181));
#183=FACE_OUTER_BOUND('',#182,.F.);
#185=CARTESIAN_POINT('',(0.E0,0.E0,0.E0));
#186=DIRECTION('',(0.E0,1.E0,0.E0));
#187=DIRECTION('',(1.E0,0.E0,0.E0));
#188=AXIS2_PLACEMENT_3D('',#185,#186,#187);
#189=CYLINDRICAL_SURFACE('',#188,1.14385E2);
#190=ORIENTED_EDGE('',*,*,#159,.F.);
#191=ORIENTED_EDGE('',*,*,#180,.T.);
#193=ORIENTED_EDGE('',*,*,#192,.T.);
#194=ORIENTED_EDGE('',*,*,#176,.F.);
#195=EDGE_LOOP('',(#190,#191,#193,#194));
#196=FACE_OUTER_BOUND('',#195,.F.);
#198=CARTESIAN_POINT('',(0.E0,8.E0,0.E0));
#199=DIRECTION('',(0.E0,1.E0,0.E0));
#200=DIRECTION('',(1.E0,0.E0,0.E0));
#201=AXIS2_PLACEMENT_3D('',#198,#199,#200);
#202=PLANE('',#201);
#203=ORIENTED_EDGE('',*,*,#178,.F.);
#204=ORIENTED_EDGE('',*,*,#192,.F.);
#205=EDGE_LOOP('',(#203,#204));
#206=FACE_OUTER_BOUND('',#205,.F.);
#208=ORIENTED_EDGE('',*,*,#207,.F.);
#210=ORIENTED_EDGE('',*,*,#209,.F.);
#211=EDGE_LOOP('',(#208,#210));
#212=FACE_BOUND('',#211,.F.);
#214=CARTESIAN_POINT('',(0.E0,0.E0,0.E0));
#215=DIRECTION('',(0.E0,1.E0,0.E0));
#216=DIRECTION('',(1.E0,0.E0,0.E0));
#217=AXIS2_PLACEMENT_3D('',#214,#215,#216);
#218=CYLINDRICAL_SURFACE('',#217,1.14135E2);
#219=ORIENTED_EDGE('',*,*,#163,.F.);
#221=ORIENTED_EDGE('',*,*,#220,.T.);
#222=ORIENTED_EDGE('',*,*,#207,.T.);
#224=ORIENTED_EDGE('',*,*,#223,.F.);
#225=EDGE_LOOP('',(#219,#221,#222,#224));
#226=FACE_OUTER_BOUND('',#225,.F.);
#228=CARTESIAN_POINT('',(0.E0,0.E0,0.E0));
#229=DIRECTION('',(0.E0,1.E0,0.E0));
#230=DIRECTION('',(1.E0,0.E0,0.E0));
#231=AXIS2_PLACEMENT_3D('',#228,#229,#230);
#232=CYLINDRICAL_SURFACE('',#231,1.14135E2);
#233=ORIENTED_EDGE('',*,*,#165,.F.);
#234=ORIENTED_EDGE('',*,*,#223,.T.);
#235=ORIENTED_EDGE('',*,*,#209,.T.);
#236=ORIENTED_EDGE('',*,*,#220,.F.);
#237=EDGE_LOOP('',(#233,#234,#235,#236));
#238=FACE_OUTER_BOUND('',#237,.F.);
#240=CLOSED_SHELL('',(#169,#184,#197,#213,#227,#239));
#241=MANIFOLD_SOLID_BREP('',#240);
#242=FILL_AREA_STYLE_COLOUR('',#16);
#243=FILL_AREA_STYLE('',(#242));
#244=SURFACE_STYLE_FILL_AREA(#243);
#245=SURFACE_SIDE_STYLE('',(#244));
#246=SURFACE_STYLE_USAGE(.BOTH.,#245);
#247=PRESENTATION_STYLE_ASSIGNMENT((#246));
#42=STYLED_ITEM('',(#247),#241);
#248=CARTESIAN_POINT('',(0.E0,1.25E0,0.E0));
#249=DIRECTION('',(0.E0,1.E0,0.E0));
#250=DIRECTION('',(1.E0,0.E0,0.E0));
#251=AXIS2_PLACEMENT_3D('',#248,#249,#250);
#254=CURVE_STYLE('',#48,POSITIVE_LENGTH_MEASURE(2.E-2),#1);
#255=PRESENTATION_STYLE_ASSIGNMENT((#254));
#256=STYLED_ITEM('',(#255),#253);
#258=CARTESIAN_POINT('',(0.E0,1.25E0,0.E0));
#259=DIRECTION('',(0.E0,1.E0,0.E0));
#260=DIRECTION('',(-1.E0,0.E0,0.E0));
#261=AXIS2_PLACEMENT_3D('',#258,#259,#260);
#264=CURVE_STYLE('',#48,POSITIVE_LENGTH_MEASURE(2.E-2),#1);
#265=PRESENTATION_STYLE_ASSIGNMENT((#264));
#266=STYLED_ITEM('',(#265),#263);
#270=CARTESIAN_POINT('',(0.E0,6.75E0,0.E0));
#271=DIRECTION('',(0.E0,1.E0,0.E0));
#272=DIRECTION('',(1.E0,0.E0,0.E0));
#273=AXIS2_PLACEMENT_3D('',#270,#271,#272);
#276=CURVE_STYLE('',#48,POSITIVE_LENGTH_MEASURE(2.E-2),#1);
#277=PRESENTATION_STYLE_ASSIGNMENT((#276));
#278=STYLED_ITEM('',(#277),#275);
#280=CARTESIAN_POINT('',(0.E0,6.75E0,0.E0));
#281=DIRECTION('',(0.E0,1.E0,0.E0));
#282=DIRECTION('',(-1.E0,0.E0,0.E0));
#283=AXIS2_PLACEMENT_3D('',#280,#281,#282);
#286=CURVE_STYLE('',#48,POSITIVE_LENGTH_MEASURE(2.E-2),#1);
#287=PRESENTATION_STYLE_ASSIGNMENT((#286));
#288=STYLED_ITEM('',(#287),#285);
#291=DIRECTION('',(0.E0,1.E0,0.E0));
#292=VECTOR('',#291,8.E-1);
#293=CARTESIAN_POINT('',(-1.E-1,7.05E0,1.143849562880E2));
#294=LINE('',#293,#292);
#296=CURVE_STYLE('',#48,POSITIVE_LENGTH_MEASURE(2.E-2),#1);
#297=PRESENTATION_STYLE_ASSIGNMENT((#296));
#298=STYLED_ITEM('',(#297),#295);
#300=CARTESIAN_POINT('',(0.E0,7.85E0,0.E0));
#301=DIRECTION('',(0.E0,1.E0,0.E0));
#302=DIRECTION('',(-8.742405035627E-4,0.E0,9.999996178517E-1));
#303=AXIS2_PLACEMENT_3D('',#300,#301,#302);
#306=CURVE_STYLE('',#48,POSITIVE_LENGTH_MEASURE(2.E-2),#1);
#307=PRESENTATION_STYLE_ASSIGNMENT((#306));
#308=STYLED_ITEM('',(#307),#305);
#310=DIRECTION('',(0.E0,-1.E0,0.E0));
#311=VECTOR('',#310,8.E-1);
#312=CARTESIAN_POINT('',(9.999999999999E-2,7.85E0,1.143849562880E2));
#313=LINE('',#312,#311);
#315=CURVE_STYLE('',#48,POSITIVE_LENGTH_MEASURE(2.E-2),#1);
#316=PRESENTATION_STYLE_ASSIGNMENT((#315));
#317=STYLED_ITEM('',(#316),#314);
#319=CARTESIAN_POINT('',(0.E0,7.05E0,0.E0));
#320=DIRECTION('',(0.E0,-1.E0,0.E0));
#321=DIRECTION('',(8.742405035625E-4,0.E0,9.999996178517E-1));
#322=AXIS2_PLACEMENT_3D('',#319,#320,#321);
#325=CURVE_STYLE('',#48,POSITIVE_LENGTH_MEASURE(2.E-2),#1);
#326=PRESENTATION_STYLE_ASSIGNMENT((#325));
#327=STYLED_ITEM('',(#326),#324);
#330=PRESENTATION_LAYER_ASSIGNMENT('SK_GRADUATION','',(#268,#290));
#333=PLANE_ANGLE_MEASURE_WITH_UNIT(PLANE_ANGLE_MEASURE(1.745329251994E-2),#332);
#334=(CONVERSION_BASED_UNIT('DEGREE',#333)NAMED_UNIT(*)PLANE_ANGLE_UNIT());
#336=UNCERTAINTY_MEASURE_WITH_UNIT(LENGTH_MEASURE(1.E-2),#331,
'distance_accuracy_value',
'Maximum model space distance between geometric entities at asserted connectivities');
#269=GEOMETRIC_SET('',(#268,#290,#329));
#340=CARTESIAN_POINT('',(0.E0,0.E0,0.E0));
#341=DIRECTION('',(0.E0,0.E0,1.E0));
#342=DIRECTION('',(1.E0,0.E0,0.E0));
#345=SHAPE_REPRESENTATION_RELATIONSHIP('','',#344,#338);
#346=SHAPE_REPRESENTATION_RELATIONSHIP('','',#344,#339);
#347=MECHANICAL_DESIGN_GEOMETRIC_PRESENTATION_REPRESENTATION('',(#51,#59,#67,
#75,#82,#89,#97,#105,#113,#121,#128,#135,#42,#256,#266,#278,#288,#298,#308,#317,
#327),#337);
#348=APPLICATION_CONTEXT('automotive_design');
#349=APPLICATION_PROTOCOL_DEFINITION('international standard',
'automotive_design',2001,#348);
#350=PRODUCT_DEFINITION_CONTEXT('part definition',#348,'design');
#351=PRODUCT_CONTEXT('',#348,'mechanical');
#352=PRODUCT('1343749-01-Z01','1343749-01-Z01','NOT SPECIFIED',(#351));
#353=PRODUCT_DEFINITION_FORMATION('1','LAST_VERSION',#352);
#361=DERIVED_UNIT_ELEMENT(#360,2.E0);
#362=DERIVED_UNIT((#361));
#363=MEASURE_REPRESENTATION_ITEM('surface area measure',AREA_MEASURE(
1.184562642777E4),#362);
#368=DERIVED_UNIT_ELEMENT(#367,3.E0);
#369=DERIVED_UNIT((#368));
#370=MEASURE_REPRESENTATION_ITEM('volume measure',VOLUME_MEASURE(
1.435833506397E3),#369);
#374=CARTESIAN_POINT('centre point',(-6.366919619446E-14,4.E0,
-2.594514114530E-12));
#379=DERIVED_UNIT_ELEMENT(#378,2.E0);
#380=DERIVED_UNIT((#379));
#381=MEASURE_REPRESENTATION_ITEM('surface area measure',AREA_MEASURE(
1.184562642777E4),#380);
#386=DERIVED_UNIT_ELEMENT(#385,3.E0);
#387=DERIVED_UNIT((#386));
#388=MEASURE_REPRESENTATION_ITEM('volume measure',VOLUME_MEASURE(
1.435833506397E3),#387);
#392=CARTESIAN_POINT('centre point',(-6.366919619446E-14,4.E0,
-2.594514114530E-12));
#397=PRODUCT_RELATED_PRODUCT_CATEGORY('part','',(#352));
#1=DRAUGHTING_PRE_DEFINED_COLOUR('black');
#2=DRAUGHTING_PRE_DEFINED_COLOUR('blue');
#3=DRAUGHTING_PRE_DEFINED_COLOUR('green');
#4=COLOUR_RGB('',1.1765E-2,3.13725E-1,0.E0);
#5=COLOUR_RGB('',4.8967E-2,8.05825E-1,1.31099E-1);
#6=COLOUR_RGB('',1.15733E-1,1.22747E-1,1.31068E-1);
#7=COLOUR_RGB('',1.3E-1,1.3E-1,1.3E-1);
#8=COLOUR_RGB('',1.5E-1,1.5E-1,1.5E-1);
#9=COLOUR_RGB('',2.5E-1,2.2E-1,3.3E-1);
#10=COLOUR_RGB('',2.54E-1,6.E-3,5.7E-1);
#11=COLOUR_RGB('',2.67E-1,7.2E-1,1.52E-1);
#12=COLOUR_RGB('',3.4E-1,2.57E-1,2.11E-1);
#13=COLOUR_RGB('',3.56863E-1,3.56863E-1,3.56863E-1);
#14=COLOUR_RGB('',3.8E-1,3.61E-1,3.38E-1);
#15=COLOUR_RGB('',3.88E-1,8.22E-1,9.02E-1);
#16=COLOUR_RGB('',5.01961E-1,5.01961E-1,5.01961E-1);
#17=COLOUR_RGB('',6.59E-1,3.18E-1,0.E0);
#18=COLOUR_RGB('',6.60108E-1,7.00114E-1,7.47573E-1);
#19=COLOUR_RGB('',6.7E-1,9.14E-1,9.3E-1);
#20=COLOUR_RGB('',7.E-1,2.4E-1,3.1E-1);
#21=COLOUR_RGB('',7.41176E-1,6.82353E-1,6.54902E-1);
#22=COLOUR_RGB('',7.52941E-1,7.52941E-1,7.52941E-1);
#23=COLOUR_RGB('',7.6E-1,7.8E-1,7.6E-1);
#24=COLOUR_RGB('',7.9E-1,1.E0,9.12E-1);
#25=COLOUR_RGB('',8.31E-1,8.08E-1,8.6E-1);
#26=COLOUR_RGB('',8.5E-1,9.73E-1,1.E0);
#27=COLOUR_RGB('',8.784E-1,9.49E-1,1.E0);
#28=COLOUR_RGB('',8.94118E-1,8.7451E-1,8.58824E-1);
#29=COLOUR_RGB('',8.97432E-1,9.47792E-1,9.66019E-1);
#30=COLOUR_RGB('',9.2E-1,1.E0,9.66E-1);
#31=COLOUR_RGB('',9.3E-1,7.69E-1,4.56E-1);
#32=COLOUR_RGB('',9.4E-1,8.E-1,6.6E-2);
#33=COLOUR_RGB('',9.5E-1,9.13E-1,8.17E-1);
#34=COLOUR_RGB('',9.52941E-1,9.37255E-1,9.33333E-1);
#35=COLOUR_RGB('',9.56863E-1,9.92157E-1,1.E0);
#36=COLOUR_RGB('',9.80583E-1,1.48319E-1,1.9371E-2);
#37=DRAUGHTING_PRE_DEFINED_COLOUR('red');
#38=COLOUR_RGB('',1.E0,6.59E-1,0.E0);
#39=COLOUR_RGB('',1.E0,6.701E-1,1.58803E-1);
#40=DRAUGHTING_PRE_DEFINED_COLOUR('yellow');
#41=DRAUGHTING_PRE_DEFINED_COLOUR('white');
#47=CIRCLE('',#46,1.14385E2);
#56=CIRCLE('',#55,1.14385E2);
#64=CIRCLE('',#63,1.14135E2);
#72=CIRCLE('',#71,1.14135E2);
#94=CIRCLE('',#93,1.14385E2);
#102=CIRCLE('',#101,1.14385E2);
#110=CIRCLE('',#109,1.14135E2);
#118=CIRCLE('',#117,1.14135E2);
#157=EDGE_CURVE('',#138,#139,#47,.T.);
#159=EDGE_CURVE('',#139,#138,#56,.T.);
#163=EDGE_CURVE('',#142,#143,#64,.T.);
#165=EDGE_CURVE('',#143,#142,#72,.T.);
#169=ADVANCED_FACE('',(#162,#168),#156,.F.);
#176=EDGE_CURVE('',#138,#146,#79,.T.);
#178=EDGE_CURVE('',#146,#147,#94,.T.);
#180=EDGE_CURVE('',#139,#147,#86,.T.);
#184=ADVANCED_FACE('',(#183),#174,.T.);
#192=EDGE_CURVE('',#147,#146,#102,.T.);
#197=ADVANCED_FACE('',(#196),#189,.T.);
#207=EDGE_CURVE('',#150,#151,#110,.T.);
#209=EDGE_CURVE('',#151,#150,#118,.T.);
#213=ADVANCED_FACE('',(#206,#212),#202,.T.);
#220=EDGE_CURVE('',#142,#150,#125,.T.);
#223=EDGE_CURVE('',#143,#151,#132,.T.);
#227=ADVANCED_FACE('',(#226),#218,.F.);
#239=ADVANCED_FACE('',(#238),#232,.F.);
#252=CIRCLE('',#251,1.14385E2);
#253=TRIMMED_CURVE('',#252,(PARAMETER_VALUE(0.E0)),(PARAMETER_VALUE(1.8E2)),.T.,
.UNSPECIFIED.);
#257=COMPOSITE_CURVE_SEGMENT(.CONTINUOUS.,.T.,#253);
#262=CIRCLE('',#261,1.14385E2);
#263=TRIMMED_CURVE('',#262,(PARAMETER_VALUE(0.E0)),(PARAMETER_VALUE(1.8E2)),.T.,
.UNSPECIFIED.);
#267=COMPOSITE_CURVE_SEGMENT(.CONTINUOUS.,.T.,#263);
#268=COMPOSITE_CURVE('',(#257,#267),.F.);
#274=CIRCLE('',#273,1.14385E2);
#275=TRIMMED_CURVE('',#274,(PARAMETER_VALUE(0.E0)),(PARAMETER_VALUE(1.8E2)),.T.,
.UNSPECIFIED.);
#279=COMPOSITE_CURVE_SEGMENT(.CONTINUOUS.,.T.,#275);
#284=CIRCLE('',#283,1.14385E2);
#285=TRIMMED_CURVE('',#284,(PARAMETER_VALUE(0.E0)),(PARAMETER_VALUE(1.8E2)),.T.,
.UNSPECIFIED.);
#289=COMPOSITE_CURVE_SEGMENT(.CONTINUOUS.,.T.,#285);
#290=COMPOSITE_CURVE('',(#279,#289),.F.);
#295=TRIMMED_CURVE('',#294,(PARAMETER_VALUE(0.E0)),(PARAMETER_VALUE(1.E0)),.T.,
.UNSPECIFIED.);
#299=COMPOSITE_CURVE_SEGMENT(.CONTINUOUS.,.T.,#295);
#304=CIRCLE('',#303,1.14385E2);
#305=TRIMMED_CURVE('',#304,(PARAMETER_VALUE(0.E0)),(PARAMETER_VALUE(
1.001805950283E-1)),.T.,.UNSPECIFIED.);
#309=COMPOSITE_CURVE_SEGMENT(.CONTINUOUS.,.T.,#305);
#314=TRIMMED_CURVE('',#313,(PARAMETER_VALUE(0.E0)),(PARAMETER_VALUE(1.E0)),.T.,
.UNSPECIFIED.);
#318=COMPOSITE_CURVE_SEGMENT(.CONTINUOUS.,.T.,#314);
#323=CIRCLE('',#322,1.14385E2);
#324=TRIMMED_CURVE('',#323,(PARAMETER_VALUE(0.E0)),(PARAMETER_VALUE(
1.001805950283E-1)),.T.,.UNSPECIFIED.);
#328=COMPOSITE_CURVE_SEGMENT(.CONTINUOUS.,.T.,#324);
#329=COMPOSITE_CURVE('',(#299,#309,#318,#328),.F.);
#331=(LENGTH_UNIT()NAMED_UNIT(*)SI_UNIT(.MILLI.,.METRE.));
#332=(NAMED_UNIT(*)PLANE_ANGLE_UNIT()SI_UNIT($,.RADIAN.));
#335=(NAMED_UNIT(*)SI_UNIT($,.STERADIAN.)SOLID_ANGLE_UNIT());
#337=(GEOMETRIC_REPRESENTATION_CONTEXT(3)GLOBAL_UNCERTAINTY_ASSIGNED_CONTEXT((
#336))GLOBAL_UNIT_ASSIGNED_CONTEXT((#331,#334,#335))REPRESENTATION_CONTEXT
('ID1','3'));
#338=ADVANCED_BREP_SHAPE_REPRESENTATION('',(#241),#337);
#339=GEOMETRICALLY_BOUNDED_SURFACE_SHAPE_REPRESENTATION('',(#269),#337);
#343=AXIS2_PLACEMENT_3D('',#340,#341,#342);
#344=SHAPE_REPRESENTATION('',(#343),#337);
#354=PRODUCT_DEFINITION('part definition','',#353,#350);
#355=PRODUCT_DEFINITION_SHAPE('','SHAPE FOR 1343749-01-Z01.',#354);
#356=SHAPE_ASPECT('','solid data associated with 1343749-01-Z01',#355,.F.);
#357=PROPERTY_DEFINITION('',
'shape for solid data with which properties are associated',#356);
#358=SHAPE_REPRESENTATION('',(#241),#337);
#359=SHAPE_DEFINITION_REPRESENTATION(#357,#358);
#360=(LENGTH_UNIT()NAMED_UNIT(*)SI_UNIT(.MILLI.,.METRE.));
#364=PROPERTY_DEFINITION('geometric validation property',
'area of 1343749-01-Z01',#356);
#365=REPRESENTATION('surface area',(#363),#337);
#366=PROPERTY_DEFINITION_REPRESENTATION(#364,#365);
#367=(LENGTH_UNIT()NAMED_UNIT(*)SI_UNIT(.MILLI.,.METRE.));
#371=PROPERTY_DEFINITION('geometric validation property',
'volume of 1343749-01-Z01',#356);
#372=REPRESENTATION('volume',(#370),#337);
#373=PROPERTY_DEFINITION_REPRESENTATION(#371,#372);
#375=PROPERTY_DEFINITION('geometric validation property',
'centroid of 1343749-01-Z01',#356);
#376=REPRESENTATION('centroid',(#374),#337);
#377=PROPERTY_DEFINITION_REPRESENTATION(#375,#376);
#378=(LENGTH_UNIT()NAMED_UNIT(*)SI_UNIT(.MILLI.,.METRE.));
#382=PROPERTY_DEFINITION('geometric validation property',
'area of 1343749-01-Z01',#355);
#383=REPRESENTATION('surface area',(#381),#337);
#384=PROPERTY_DEFINITION_REPRESENTATION(#382,#383);
#385=(LENGTH_UNIT()NAMED_UNIT(*)SI_UNIT(.MILLI.,.METRE.));
#389=PROPERTY_DEFINITION('geometric validation property',
'volume of 1343749-01-Z01',#355);
#390=REPRESENTATION('volume',(#388),#337);
#391=PROPERTY_DEFINITION_REPRESENTATION(#389,#390);
#393=PROPERTY_DEFINITION('geometric validation property',
'centroid of 1343749-01-Z01',#355);
#394=REPRESENTATION('centroid',(#392),#337);
#395=PROPERTY_DEFINITION_REPRESENTATION(#393,#394);
#396=SHAPE_DEFINITION_REPRESENTATION(#355,#344);
ENDSEC;
END-ISO-10303-21;
