ISO-10303-21;
HEADER;
FILE_DESCRIPTION((''),'2;1');
FILE_NAME('1305426-01-Z01','2021-06-15T07:41:16',('AT10150'),(''),
'CREO PARAMETRIC BY PTC INC, 2019164','CREO PARAMETRIC BY PTC INC, 2019164','');
FILE_SCHEMA(('AUTOMOTIVE_DESIGN { 1 0 10303 214 1 1 1 1 }'));
ENDSEC;
DATA;
#44=CARTESIAN_POINT('',(0.E0,0.E0,0.E0));
#45=DIRECTION('',(0.E0,1.E0,0.E0));
#46=DIRECTION('',(1.E0,0.E0,0.E0));
#47=AXIS2_PLACEMENT_3D('',#44,#45,#46);
#49=DRAUGHTING_PRE_DEFINED_CURVE_FONT('continuous');
#50=CURVE_STYLE('',#49,POSITIVE_LENGTH_MEASURE(2.E-2),#16);
#51=PRESENTATION_STYLE_ASSIGNMENT((#50));
#52=STYLED_ITEM('',(#51),#48);
#53=CARTESIAN_POINT('',(0.E0,0.E0,0.E0));
#54=DIRECTION('',(0.E0,1.E0,0.E0));
#55=DIRECTION('',(-1.E0,0.E0,0.E0));
#56=AXIS2_PLACEMENT_3D('',#53,#54,#55);
#58=CURVE_STYLE('',#49,POSITIVE_LENGTH_MEASURE(2.E-2),#16);
#59=PRESENTATION_STYLE_ASSIGNMENT((#58));
#60=STYLED_ITEM('',(#59),#57);
#61=CARTESIAN_POINT('',(0.E0,0.E0,0.E0));
#62=DIRECTION('',(0.E0,-1.E0,0.E0));
#63=DIRECTION('',(1.E0,0.E0,0.E0));
#64=AXIS2_PLACEMENT_3D('',#61,#62,#63);
#66=CURVE_STYLE('',#49,POSITIVE_LENGTH_MEASURE(2.E-2),#16);
#67=PRESENTATION_STYLE_ASSIGNMENT((#66));
#68=STYLED_ITEM('',(#67),#65);
#69=CARTESIAN_POINT('',(0.E0,0.E0,0.E0));
#70=DIRECTION('',(0.E0,-1.E0,0.E0));
#71=DIRECTION('',(-1.E0,0.E0,0.E0));
#72=AXIS2_PLACEMENT_3D('',#69,#70,#71);
#74=CURVE_STYLE('',#49,POSITIVE_LENGTH_MEASURE(2.E-2),#16);
#75=PRESENTATION_STYLE_ASSIGNMENT((#74));
#76=STYLED_ITEM('',(#75),#73);
#77=DIRECTION('',(0.E0,1.E0,0.E0));
#78=VECTOR('',#77,8.E0);
#79=CARTESIAN_POINT('',(1.75115E2,0.E0,2.144540242327E-14));
#80=LINE('',#79,#78);
#81=CURVE_STYLE('',#49,POSITIVE_LENGTH_MEASURE(2.E-2),#16);
#82=PRESENTATION_STYLE_ASSIGNMENT((#81));
#83=STYLED_ITEM('',(#82),#80);
#84=DIRECTION('',(0.E0,1.E0,0.E0));
#85=VECTOR('',#84,8.E0);
#86=CARTESIAN_POINT('',(-1.75115E2,0.E0,-2.144540242327E-14));
#87=LINE('',#86,#85);
#88=CURVE_STYLE('',#49,POSITIVE_LENGTH_MEASURE(2.E-2),#16);
#89=PRESENTATION_STYLE_ASSIGNMENT((#88));
#90=STYLED_ITEM('',(#89),#87);
#91=CARTESIAN_POINT('',(0.E0,8.E0,0.E0));
#92=DIRECTION('',(0.E0,1.E0,0.E0));
#93=DIRECTION('',(1.E0,0.E0,0.E0));
#94=AXIS2_PLACEMENT_3D('',#91,#92,#93);
#96=CURVE_STYLE('',#49,POSITIVE_LENGTH_MEASURE(2.E-2),#16);
#97=PRESENTATION_STYLE_ASSIGNMENT((#96));
#98=STYLED_ITEM('',(#97),#95);
#99=CARTESIAN_POINT('',(0.E0,8.E0,0.E0));
#100=DIRECTION('',(0.E0,1.E0,0.E0));
#101=DIRECTION('',(-1.E0,0.E0,0.E0));
#102=AXIS2_PLACEMENT_3D('',#99,#100,#101);
#104=CURVE_STYLE('',#49,POSITIVE_LENGTH_MEASURE(2.E-2),#16);
#105=PRESENTATION_STYLE_ASSIGNMENT((#104));
#106=STYLED_ITEM('',(#105),#103);
#107=CARTESIAN_POINT('',(0.E0,8.E0,0.E0));
#108=DIRECTION('',(0.E0,-1.E0,0.E0));
#109=DIRECTION('',(1.E0,0.E0,0.E0));
#110=AXIS2_PLACEMENT_3D('',#107,#108,#109);
#112=CURVE_STYLE('',#49,POSITIVE_LENGTH_MEASURE(2.E-2),#16);
#113=PRESENTATION_STYLE_ASSIGNMENT((#112));
#114=STYLED_ITEM('',(#113),#111);
#115=CARTESIAN_POINT('',(0.E0,8.E0,0.E0));
#116=DIRECTION('',(0.E0,-1.E0,0.E0));
#117=DIRECTION('',(-1.E0,0.E0,0.E0));
#118=AXIS2_PLACEMENT_3D('',#115,#116,#117);
#120=CURVE_STYLE('',#49,POSITIVE_LENGTH_MEASURE(2.E-2),#16);
#121=PRESENTATION_STYLE_ASSIGNMENT((#120));
#122=STYLED_ITEM('',(#121),#119);
#123=DIRECTION('',(0.E0,1.E0,0.E0));
#124=VECTOR('',#123,8.E0);
#125=CARTESIAN_POINT('',(1.74865E2,0.E0,2.141478625329E-14));
#126=LINE('',#125,#124);
#127=CURVE_STYLE('',#49,POSITIVE_LENGTH_MEASURE(2.E-2),#16);
#128=PRESENTATION_STYLE_ASSIGNMENT((#127));
#129=STYLED_ITEM('',(#128),#126);
#130=DIRECTION('',(0.E0,1.E0,0.E0));
#131=VECTOR('',#130,8.E0);
#132=CARTESIAN_POINT('',(-1.74865E2,0.E0,-2.141478625329E-14));
#133=LINE('',#132,#131);
#134=CURVE_STYLE('',#49,POSITIVE_LENGTH_MEASURE(2.E-2),#16);
#135=PRESENTATION_STYLE_ASSIGNMENT((#134));
#136=STYLED_ITEM('',(#135),#133);
#137=CARTESIAN_POINT('',(1.75115E2,0.E0,2.144540242327E-14));
#138=CARTESIAN_POINT('',(-1.75115E2,0.E0,-4.289080484654E-14));
#139=VERTEX_POINT('',#137);
#140=VERTEX_POINT('',#138);
#141=CARTESIAN_POINT('',(1.74865E2,0.E0,2.141478625329E-14));
#142=CARTESIAN_POINT('',(-1.74865E2,0.E0,0.E0));
#143=VERTEX_POINT('',#141);
#144=VERTEX_POINT('',#142);
#145=CARTESIAN_POINT('',(1.75115E2,8.E0,2.144540242327E-14));
#146=CARTESIAN_POINT('',(-1.75115E2,8.E0,-4.289080484654E-14));
#147=VERTEX_POINT('',#145);
#148=VERTEX_POINT('',#146);
#149=CARTESIAN_POINT('',(1.74865E2,8.E0,2.141478625329E-14));
#150=CARTESIAN_POINT('',(-1.74865E2,8.E0,0.E0));
#151=VERTEX_POINT('',#149);
#152=VERTEX_POINT('',#150);
#153=CARTESIAN_POINT('',(0.E0,0.E0,0.E0));
#154=DIRECTION('',(0.E0,1.E0,0.E0));
#155=DIRECTION('',(1.E0,0.E0,0.E0));
#156=AXIS2_PLACEMENT_3D('',#153,#154,#155);
#157=PLANE('',#156);
#159=ORIENTED_EDGE('',*,*,#158,.T.);
#161=ORIENTED_EDGE('',*,*,#160,.T.);
#162=EDGE_LOOP('',(#159,#161));
#163=FACE_OUTER_BOUND('',#162,.F.);
#165=ORIENTED_EDGE('',*,*,#164,.T.);
#167=ORIENTED_EDGE('',*,*,#166,.T.);
#168=EDGE_LOOP('',(#165,#167));
#169=FACE_BOUND('',#168,.F.);
#171=CARTESIAN_POINT('',(0.E0,0.E0,0.E0));
#172=DIRECTION('',(0.E0,1.E0,0.E0));
#173=DIRECTION('',(1.E0,0.E0,0.E0));
#174=AXIS2_PLACEMENT_3D('',#171,#172,#173);
#175=CYLINDRICAL_SURFACE('',#174,1.75115E2);
#176=ORIENTED_EDGE('',*,*,#158,.F.);
#178=ORIENTED_EDGE('',*,*,#177,.T.);
#180=ORIENTED_EDGE('',*,*,#179,.T.);
#182=ORIENTED_EDGE('',*,*,#181,.F.);
#183=EDGE_LOOP('',(#176,#178,#180,#182));
#184=FACE_OUTER_BOUND('',#183,.F.);
#186=CARTESIAN_POINT('',(0.E0,0.E0,0.E0));
#187=DIRECTION('',(0.E0,1.E0,0.E0));
#188=DIRECTION('',(1.E0,0.E0,0.E0));
#189=AXIS2_PLACEMENT_3D('',#186,#187,#188);
#190=CYLINDRICAL_SURFACE('',#189,1.75115E2);
#191=ORIENTED_EDGE('',*,*,#160,.F.);
#192=ORIENTED_EDGE('',*,*,#181,.T.);
#194=ORIENTED_EDGE('',*,*,#193,.T.);
#195=ORIENTED_EDGE('',*,*,#177,.F.);
#196=EDGE_LOOP('',(#191,#192,#194,#195));
#197=FACE_OUTER_BOUND('',#196,.F.);
#199=CARTESIAN_POINT('',(0.E0,8.E0,0.E0));
#200=DIRECTION('',(0.E0,1.E0,0.E0));
#201=DIRECTION('',(1.E0,0.E0,0.E0));
#202=AXIS2_PLACEMENT_3D('',#199,#200,#201);
#203=PLANE('',#202);
#204=ORIENTED_EDGE('',*,*,#179,.F.);
#205=ORIENTED_EDGE('',*,*,#193,.F.);
#206=EDGE_LOOP('',(#204,#205));
#207=FACE_OUTER_BOUND('',#206,.F.);
#209=ORIENTED_EDGE('',*,*,#208,.F.);
#211=ORIENTED_EDGE('',*,*,#210,.F.);
#212=EDGE_LOOP('',(#209,#211));
#213=FACE_BOUND('',#212,.F.);
#215=CARTESIAN_POINT('',(0.E0,0.E0,0.E0));
#216=DIRECTION('',(0.E0,1.E0,0.E0));
#217=DIRECTION('',(1.E0,0.E0,0.E0));
#218=AXIS2_PLACEMENT_3D('',#215,#216,#217);
#219=CYLINDRICAL_SURFACE('',#218,1.74865E2);
#220=ORIENTED_EDGE('',*,*,#164,.F.);
#222=ORIENTED_EDGE('',*,*,#221,.T.);
#223=ORIENTED_EDGE('',*,*,#208,.T.);
#225=ORIENTED_EDGE('',*,*,#224,.F.);
#226=EDGE_LOOP('',(#220,#222,#223,#225));
#227=FACE_OUTER_BOUND('',#226,.F.);
#229=CARTESIAN_POINT('',(0.E0,0.E0,0.E0));
#230=DIRECTION('',(0.E0,1.E0,0.E0));
#231=DIRECTION('',(1.E0,0.E0,0.E0));
#232=AXIS2_PLACEMENT_3D('',#229,#230,#231);
#233=CYLINDRICAL_SURFACE('',#232,1.74865E2);
#234=ORIENTED_EDGE('',*,*,#166,.F.);
#235=ORIENTED_EDGE('',*,*,#224,.T.);
#236=ORIENTED_EDGE('',*,*,#210,.T.);
#237=ORIENTED_EDGE('',*,*,#221,.F.);
#238=EDGE_LOOP('',(#234,#235,#236,#237));
#239=FACE_OUTER_BOUND('',#238,.F.);
#241=CLOSED_SHELL('',(#170,#185,#198,#214,#228,#240));
#242=MANIFOLD_SOLID_BREP('',#241);
#243=FILL_AREA_STYLE_COLOUR('',#16);
#244=FILL_AREA_STYLE('',(#243));
#245=SURFACE_STYLE_FILL_AREA(#244);
#246=SURFACE_SIDE_STYLE('',(#245));
#247=SURFACE_STYLE_USAGE(.BOTH.,#246);
#248=PRESENTATION_STYLE_ASSIGNMENT((#247));
#43=STYLED_ITEM('',(#248),#242);
#249=CARTESIAN_POINT('',(0.E0,2.7E0,0.E0));
#250=DIRECTION('',(0.E0,1.E0,0.E0));
#251=DIRECTION('',(1.E0,0.E0,0.E0));
#252=AXIS2_PLACEMENT_3D('',#249,#250,#251);
#255=CURVE_STYLE('',#49,POSITIVE_LENGTH_MEASURE(2.E-2),#1);
#256=PRESENTATION_STYLE_ASSIGNMENT((#255));
#257=STYLED_ITEM('',(#256),#254);
#259=CARTESIAN_POINT('',(0.E0,2.7E0,0.E0));
#260=DIRECTION('',(0.E0,1.E0,0.E0));
#261=DIRECTION('',(-1.E0,0.E0,0.E0));
#262=AXIS2_PLACEMENT_3D('',#259,#260,#261);
#265=CURVE_STYLE('',#49,POSITIVE_LENGTH_MEASURE(2.E-2),#1);
#266=PRESENTATION_STYLE_ASSIGNMENT((#265));
#267=STYLED_ITEM('',(#266),#264);
#271=CARTESIAN_POINT('',(0.E0,5.3E0,0.E0));
#272=DIRECTION('',(0.E0,1.E0,0.E0));
#273=DIRECTION('',(1.E0,0.E0,0.E0));
#274=AXIS2_PLACEMENT_3D('',#271,#272,#273);
#277=CURVE_STYLE('',#49,POSITIVE_LENGTH_MEASURE(2.E-2),#1);
#278=PRESENTATION_STYLE_ASSIGNMENT((#277));
#279=STYLED_ITEM('',(#278),#276);
#281=CARTESIAN_POINT('',(0.E0,5.3E0,0.E0));
#282=DIRECTION('',(0.E0,1.E0,0.E0));
#283=DIRECTION('',(-1.E0,0.E0,0.E0));
#284=AXIS2_PLACEMENT_3D('',#281,#282,#283);
#287=CURVE_STYLE('',#49,POSITIVE_LENGTH_MEASURE(2.E-2),#1);
#288=PRESENTATION_STYLE_ASSIGNMENT((#287));
#289=STYLED_ITEM('',(#288),#286);
#292=DIRECTION('',(0.E0,-1.E0,0.E0));
#293=VECTOR('',#292,2.4E0);
#294=CARTESIAN_POINT('',(-8.6E-1,2.7E0,1.751128882321E2));
#295=LINE('',#294,#293);
#297=CURVE_STYLE('',#49,POSITIVE_LENGTH_MEASURE(2.E-2),#1);
#298=PRESENTATION_STYLE_ASSIGNMENT((#297));
#299=STYLED_ITEM('',(#298),#296);
#301=CARTESIAN_POINT('',(0.E0,3.E-1,0.E0));
#302=DIRECTION('',(0.E0,1.E0,0.E0));
#303=DIRECTION('',(-4.911058447306E-3,0.E0,9.999879406797E-1));
#304=AXIS2_PLACEMENT_3D('',#301,#302,#303);
#307=CURVE_STYLE('',#49,POSITIVE_LENGTH_MEASURE(2.E-2),#1);
#308=PRESENTATION_STYLE_ASSIGNMENT((#307));
#309=STYLED_ITEM('',(#308),#306);
#311=DIRECTION('',(0.E0,1.E0,0.E0));
#312=VECTOR('',#311,2.4E0);
#313=CARTESIAN_POINT('',(8.599999999999E-1,3.E-1,1.751128882321E2));
#314=LINE('',#313,#312);
#316=CURVE_STYLE('',#49,POSITIVE_LENGTH_MEASURE(2.E-2),#1);
#317=PRESENTATION_STYLE_ASSIGNMENT((#316));
#318=STYLED_ITEM('',(#317),#315);
#320=CARTESIAN_POINT('',(0.E0,2.7E0,0.E0));
#321=DIRECTION('',(0.E0,-1.E0,0.E0));
#322=DIRECTION('',(4.911058447306E-3,0.E0,9.999879406797E-1));
#323=AXIS2_PLACEMENT_3D('',#320,#321,#322);
#326=CURVE_STYLE('',#49,POSITIVE_LENGTH_MEASURE(2.E-2),#1);
#327=PRESENTATION_STYLE_ASSIGNMENT((#326));
#328=STYLED_ITEM('',(#327),#325);
#331=PRESENTATION_LAYER_ASSIGNMENT('SK_GRADUATION','',(#269,#291));
#334=PLANE_ANGLE_MEASURE_WITH_UNIT(PLANE_ANGLE_MEASURE(1.745329251994E-2),#333);
#335=(CONVERSION_BASED_UNIT('DEGREE',#334)NAMED_UNIT(*)PLANE_ANGLE_UNIT());
#337=UNCERTAINTY_MEASURE_WITH_UNIT(LENGTH_MEASURE(1.E-2),#332,
'distance_accuracy_value',
'Maximum model space distance between geometric entities at asserted connectivities');
#270=GEOMETRIC_SET('',(#269,#291,#330));
#341=CARTESIAN_POINT('',(0.E0,0.E0,0.E0));
#342=DIRECTION('',(0.E0,0.E0,1.E0));
#343=DIRECTION('',(1.E0,0.E0,0.E0));
#346=SHAPE_REPRESENTATION_RELATIONSHIP('','',#345,#339);
#347=SHAPE_REPRESENTATION_RELATIONSHIP('','',#345,#340);
#348=MECHANICAL_DESIGN_GEOMETRIC_PRESENTATION_REPRESENTATION('',(#52,#60,#68,
#76,#83,#90,#98,#106,#114,#122,#129,#136,#43,#257,#267,#279,#289,#299,#309,#318,
#328),#338);
#349=APPLICATION_CONTEXT('automotive_design');
#350=APPLICATION_PROTOCOL_DEFINITION('international standard',
'automotive_design',2001,#349);
#351=PRODUCT_DEFINITION_CONTEXT('part definition',#349,'design');
#352=PRODUCT_CONTEXT('',#349,'mechanical');
#353=PRODUCT('1305426-01-Z01','1305426-01-Z01','NOT SPECIFIED',(#352));
#354=PRODUCT_DEFINITION_FORMATION('1','LAST_VERSION',#353);
#362=DERIVED_UNIT_ELEMENT(#361,2.E0);
#363=DERIVED_UNIT((#362));
#364=MEASURE_REPRESENTATION_ITEM('surface area measure',AREA_MEASURE(
1.814166084891E4),#363);
#369=DERIVED_UNIT_ELEMENT(#368,3.E0);
#370=DERIVED_UNIT((#369));
#371=MEASURE_REPRESENTATION_ITEM('volume measure',VOLUME_MEASURE(
2.198989193807E3),#370);
#375=CARTESIAN_POINT('centre point',(5.168980982030E-13,4.E0,0.E0));
#380=DERIVED_UNIT_ELEMENT(#379,2.E0);
#381=DERIVED_UNIT((#380));
#382=MEASURE_REPRESENTATION_ITEM('surface area measure',AREA_MEASURE(
1.814166084891E4),#381);
#387=DERIVED_UNIT_ELEMENT(#386,3.E0);
#388=DERIVED_UNIT((#387));
#389=MEASURE_REPRESENTATION_ITEM('volume measure',VOLUME_MEASURE(
2.198989193807E3),#388);
#393=CARTESIAN_POINT('centre point',(5.168980982030E-13,4.E0,0.E0));
#398=PRODUCT_RELATED_PRODUCT_CATEGORY('part','',(#353));
#1=DRAUGHTING_PRE_DEFINED_COLOUR('black');
#2=DRAUGHTING_PRE_DEFINED_COLOUR('blue');
#3=DRAUGHTING_PRE_DEFINED_COLOUR('green');
#4=COLOUR_RGB('',1.1765E-2,3.13725E-1,0.E0);
#5=COLOUR_RGB('',4.8967E-2,8.05825E-1,1.31099E-1);
#6=COLOUR_RGB('',1.15733E-1,1.22747E-1,1.31068E-1);
#7=COLOUR_RGB('',1.3E-1,1.3E-1,1.3E-1);
#8=COLOUR_RGB('',1.5E-1,1.5E-1,1.5E-1);
#9=COLOUR_RGB('',2.5E-1,2.2E-1,3.3E-1);
#10=COLOUR_RGB('',2.54E-1,6.E-3,5.7E-1);
#11=COLOUR_RGB('',2.67E-1,7.2E-1,1.52E-1);
#12=COLOUR_RGB('',3.4E-1,2.57E-1,2.11E-1);
#13=COLOUR_RGB('',3.56863E-1,3.56863E-1,3.56863E-1);
#14=COLOUR_RGB('',3.8E-1,3.61E-1,3.38E-1);
#15=COLOUR_RGB('',3.88E-1,8.22E-1,9.02E-1);
#16=COLOUR_RGB('',5.01961E-1,5.01961E-1,5.01961E-1);
#17=COLOUR_RGB('',6.35294E-1,6.86275E-1,7.4902E-1);
#18=COLOUR_RGB('',6.59E-1,3.18E-1,0.E0);
#19=COLOUR_RGB('',6.60108E-1,7.00114E-1,7.47573E-1);
#20=COLOUR_RGB('',6.7E-1,9.14E-1,9.3E-1);
#21=COLOUR_RGB('',7.E-1,2.4E-1,3.1E-1);
#22=COLOUR_RGB('',7.41176E-1,6.82353E-1,6.54902E-1);
#23=COLOUR_RGB('',7.52941E-1,7.52941E-1,7.52941E-1);
#24=COLOUR_RGB('',7.6E-1,7.8E-1,7.6E-1);
#25=COLOUR_RGB('',7.9E-1,1.E0,9.12E-1);
#26=COLOUR_RGB('',8.31E-1,8.08E-1,8.6E-1);
#27=COLOUR_RGB('',8.5E-1,9.73E-1,1.E0);
#28=COLOUR_RGB('',8.784E-1,9.49E-1,1.E0);
#29=COLOUR_RGB('',8.94118E-1,8.7451E-1,8.58824E-1);
#30=COLOUR_RGB('',8.97432E-1,9.47792E-1,9.66019E-1);
#31=COLOUR_RGB('',9.2E-1,1.E0,9.66E-1);
#32=COLOUR_RGB('',9.3E-1,7.69E-1,4.56E-1);
#33=COLOUR_RGB('',9.4E-1,8.E-1,6.6E-2);
#34=COLOUR_RGB('',9.5E-1,9.13E-1,8.17E-1);
#35=COLOUR_RGB('',9.52941E-1,9.37255E-1,9.33333E-1);
#36=COLOUR_RGB('',9.56863E-1,9.92157E-1,1.E0);
#37=COLOUR_RGB('',9.80583E-1,1.48319E-1,1.9371E-2);
#38=DRAUGHTING_PRE_DEFINED_COLOUR('red');
#39=COLOUR_RGB('',1.E0,6.59E-1,0.E0);
#40=COLOUR_RGB('',1.E0,6.701E-1,1.58803E-1);
#41=DRAUGHTING_PRE_DEFINED_COLOUR('yellow');
#42=DRAUGHTING_PRE_DEFINED_COLOUR('white');
#48=CIRCLE('',#47,1.75115E2);
#57=CIRCLE('',#56,1.75115E2);
#65=CIRCLE('',#64,1.74865E2);
#73=CIRCLE('',#72,1.74865E2);
#95=CIRCLE('',#94,1.75115E2);
#103=CIRCLE('',#102,1.75115E2);
#111=CIRCLE('',#110,1.74865E2);
#119=CIRCLE('',#118,1.74865E2);
#158=EDGE_CURVE('',#139,#140,#48,.T.);
#160=EDGE_CURVE('',#140,#139,#57,.T.);
#164=EDGE_CURVE('',#143,#144,#65,.T.);
#166=EDGE_CURVE('',#144,#143,#73,.T.);
#170=ADVANCED_FACE('',(#163,#169),#157,.F.);
#177=EDGE_CURVE('',#139,#147,#80,.T.);
#179=EDGE_CURVE('',#147,#148,#95,.T.);
#181=EDGE_CURVE('',#140,#148,#87,.T.);
#185=ADVANCED_FACE('',(#184),#175,.T.);
#193=EDGE_CURVE('',#148,#147,#103,.T.);
#198=ADVANCED_FACE('',(#197),#190,.T.);
#208=EDGE_CURVE('',#151,#152,#111,.T.);
#210=EDGE_CURVE('',#152,#151,#119,.T.);
#214=ADVANCED_FACE('',(#207,#213),#203,.T.);
#221=EDGE_CURVE('',#143,#151,#126,.T.);
#224=EDGE_CURVE('',#144,#152,#133,.T.);
#228=ADVANCED_FACE('',(#227),#219,.F.);
#240=ADVANCED_FACE('',(#239),#233,.F.);
#253=CIRCLE('',#252,1.75115E2);
#254=TRIMMED_CURVE('',#253,(PARAMETER_VALUE(0.E0)),(PARAMETER_VALUE(1.8E2)),.T.,
.UNSPECIFIED.);
#258=COMPOSITE_CURVE_SEGMENT(.CONTINUOUS.,.T.,#254);
#263=CIRCLE('',#262,1.75115E2);
#264=TRIMMED_CURVE('',#263,(PARAMETER_VALUE(0.E0)),(PARAMETER_VALUE(1.8E2)),.T.,
.UNSPECIFIED.);
#268=COMPOSITE_CURVE_SEGMENT(.CONTINUOUS.,.T.,#264);
#269=COMPOSITE_CURVE('',(#258,#268),.F.);
#275=CIRCLE('',#274,1.75115E2);
#276=TRIMMED_CURVE('',#275,(PARAMETER_VALUE(0.E0)),(PARAMETER_VALUE(1.8E2)),.T.,
.UNSPECIFIED.);
#280=COMPOSITE_CURVE_SEGMENT(.CONTINUOUS.,.T.,#276);
#285=CIRCLE('',#284,1.75115E2);
#286=TRIMMED_CURVE('',#285,(PARAMETER_VALUE(0.E0)),(PARAMETER_VALUE(1.8E2)),.T.,
.UNSPECIFIED.);
#290=COMPOSITE_CURVE_SEGMENT(.CONTINUOUS.,.T.,#286);
#291=COMPOSITE_CURVE('',(#280,#290),.F.);
#296=TRIMMED_CURVE('',#295,(PARAMETER_VALUE(0.E0)),(PARAMETER_VALUE(1.E0)),.T.,
.UNSPECIFIED.);
#300=COMPOSITE_CURVE_SEGMENT(.CONTINUOUS.,.T.,#296);
#305=CIRCLE('',#304,1.75115E2);
#306=TRIMMED_CURVE('',#305,(PARAMETER_VALUE(0.E0)),(PARAMETER_VALUE(
5.627681061475E-1)),.T.,.UNSPECIFIED.);
#310=COMPOSITE_CURVE_SEGMENT(.CONTINUOUS.,.T.,#306);
#315=TRIMMED_CURVE('',#314,(PARAMETER_VALUE(0.E0)),(PARAMETER_VALUE(1.E0)),.T.,
.UNSPECIFIED.);
#319=COMPOSITE_CURVE_SEGMENT(.CONTINUOUS.,.T.,#315);
#324=CIRCLE('',#323,1.75115E2);
#325=TRIMMED_CURVE('',#324,(PARAMETER_VALUE(0.E0)),(PARAMETER_VALUE(
5.627681061475E-1)),.T.,.UNSPECIFIED.);
#329=COMPOSITE_CURVE_SEGMENT(.CONTINUOUS.,.T.,#325);
#330=COMPOSITE_CURVE('',(#300,#310,#319,#329),.F.);
#332=(LENGTH_UNIT()NAMED_UNIT(*)SI_UNIT(.MILLI.,.METRE.));
#333=(NAMED_UNIT(*)PLANE_ANGLE_UNIT()SI_UNIT($,.RADIAN.));
#336=(NAMED_UNIT(*)SI_UNIT($,.STERADIAN.)SOLID_ANGLE_UNIT());
#338=(GEOMETRIC_REPRESENTATION_CONTEXT(3)GLOBAL_UNCERTAINTY_ASSIGNED_CONTEXT((
#337))GLOBAL_UNIT_ASSIGNED_CONTEXT((#332,#335,#336))REPRESENTATION_CONTEXT
('ID1','3'));
#339=ADVANCED_BREP_SHAPE_REPRESENTATION('',(#242),#338);
#340=GEOMETRICALLY_BOUNDED_SURFACE_SHAPE_REPRESENTATION('',(#270),#338);
#344=AXIS2_PLACEMENT_3D('',#341,#342,#343);
#345=SHAPE_REPRESENTATION('',(#344),#338);
#355=PRODUCT_DEFINITION('part definition','',#354,#351);
#356=PRODUCT_DEFINITION_SHAPE('','SHAPE FOR 1305426-01-Z01.',#355);
#357=SHAPE_ASPECT('','solid data associated with 1305426-01-Z01',#356,.F.);
#358=PROPERTY_DEFINITION('',
'shape for solid data with which properties are associated',#357);
#359=SHAPE_REPRESENTATION('',(#242),#338);
#360=SHAPE_DEFINITION_REPRESENTATION(#358,#359);
#361=(LENGTH_UNIT()NAMED_UNIT(*)SI_UNIT(.MILLI.,.METRE.));
#365=PROPERTY_DEFINITION('geometric validation property',
'area of 1305426-01-Z01',#357);
#366=REPRESENTATION('surface area',(#364),#338);
#367=PROPERTY_DEFINITION_REPRESENTATION(#365,#366);
#368=(LENGTH_UNIT()NAMED_UNIT(*)SI_UNIT(.MILLI.,.METRE.));
#372=PROPERTY_DEFINITION('geometric validation property',
'volume of 1305426-01-Z01',#357);
#373=REPRESENTATION('volume',(#371),#338);
#374=PROPERTY_DEFINITION_REPRESENTATION(#372,#373);
#376=PROPERTY_DEFINITION('geometric validation property',
'centroid of 1305426-01-Z01',#357);
#377=REPRESENTATION('centroid',(#375),#338);
#378=PROPERTY_DEFINITION_REPRESENTATION(#376,#377);
#379=(LENGTH_UNIT()NAMED_UNIT(*)SI_UNIT(.MILLI.,.METRE.));
#383=PROPERTY_DEFINITION('geometric validation property',
'area of 1305426-01-Z01',#356);
#384=REPRESENTATION('surface area',(#382),#338);
#385=PROPERTY_DEFINITION_REPRESENTATION(#383,#384);
#386=(LENGTH_UNIT()NAMED_UNIT(*)SI_UNIT(.MILLI.,.METRE.));
#390=PROPERTY_DEFINITION('geometric validation property',
'volume of 1305426-01-Z01',#356);
#391=REPRESENTATION('volume',(#389),#338);
#392=PROPERTY_DEFINITION_REPRESENTATION(#390,#391);
#394=PROPERTY_DEFINITION('geometric validation property',
'centroid of 1305426-01-Z01',#356);
#395=REPRESENTATION('centroid',(#393),#338);
#396=PROPERTY_DEFINITION_REPRESENTATION(#394,#395);
#397=SHAPE_DEFINITION_REPRESENTATION(#356,#345);
ENDSEC;
END-ISO-10303-21;
