ISO-10303-21;
HEADER;
FILE_DESCRIPTION((''),'2;1');
FILE_NAME('1191274-01-Z02','2021-05-31T09:10:08',('AT10150'),(''),
'CREO PARAMETRIC BY PTC INC, 2019164','CREO PARAMETRIC BY PTC INC, 2019164','');
FILE_SCHEMA(('AUTOMOTIVE_DESIGN { 1 0 10303 214 1 1 1 1 }'));
ENDSEC;
DATA;
#44=DIRECTION('',(0.E0,-1.E0,0.E0));
#45=VECTOR('',#44,1.E1);
#46=CARTESIAN_POINT('',(0.E0,0.E0,0.E0));
#47=LINE('',#46,#45);
#48=DRAUGHTING_PRE_DEFINED_CURVE_FONT('continuous');
#49=CURVE_STYLE('',#48,POSITIVE_LENGTH_MEASURE(2.E-2),#16);
#50=PRESENTATION_STYLE_ASSIGNMENT((#49));
#51=STYLED_ITEM('',(#50),#47);
#52=DIRECTION('',(0.E0,0.E0,-1.E0));
#53=VECTOR('',#52,2.E0);
#54=CARTESIAN_POINT('',(0.E0,-1.E1,0.E0));
#55=LINE('',#54,#53);
#56=CURVE_STYLE('',#48,POSITIVE_LENGTH_MEASURE(2.E-2),#16);
#57=PRESENTATION_STYLE_ASSIGNMENT((#56));
#58=STYLED_ITEM('',(#57),#55);
#59=DIRECTION('',(0.E0,1.E0,0.E0));
#60=VECTOR('',#59,5.E-1);
#61=CARTESIAN_POINT('',(0.E0,-1.E1,-2.E0));
#62=LINE('',#61,#60);
#63=CURVE_STYLE('',#48,POSITIVE_LENGTH_MEASURE(2.E-2),#16);
#64=PRESENTATION_STYLE_ASSIGNMENT((#63));
#65=STYLED_ITEM('',(#64),#62);
#66=DIRECTION('',(0.E0,0.E0,-1.E0));
#67=VECTOR('',#66,6.4E-1);
#68=CARTESIAN_POINT('',(0.E0,-9.5E0,-2.E0));
#69=LINE('',#68,#67);
#70=CURVE_STYLE('',#48,POSITIVE_LENGTH_MEASURE(2.E-2),#16);
#71=PRESENTATION_STYLE_ASSIGNMENT((#70));
#72=STYLED_ITEM('',(#71),#69);
#73=DIRECTION('',(0.E0,1.E0,0.E0));
#74=VECTOR('',#73,9.E0);
#75=CARTESIAN_POINT('',(0.E0,-9.5E0,-2.64E0));
#76=LINE('',#75,#74);
#77=CURVE_STYLE('',#48,POSITIVE_LENGTH_MEASURE(2.E-2),#16);
#78=PRESENTATION_STYLE_ASSIGNMENT((#77));
#79=STYLED_ITEM('',(#78),#76);
#80=DIRECTION('',(0.E0,0.E0,1.E0));
#81=VECTOR('',#80,6.4E-1);
#82=CARTESIAN_POINT('',(0.E0,-5.E-1,-2.64E0));
#83=LINE('',#82,#81);
#84=CURVE_STYLE('',#48,POSITIVE_LENGTH_MEASURE(2.E-2),#16);
#85=PRESENTATION_STYLE_ASSIGNMENT((#84));
#86=STYLED_ITEM('',(#85),#83);
#87=DIRECTION('',(0.E0,1.E0,0.E0));
#88=VECTOR('',#87,5.E-1);
#89=CARTESIAN_POINT('',(0.E0,-5.E-1,-2.E0));
#90=LINE('',#89,#88);
#91=CURVE_STYLE('',#48,POSITIVE_LENGTH_MEASURE(2.E-2),#16);
#92=PRESENTATION_STYLE_ASSIGNMENT((#91));
#93=STYLED_ITEM('',(#92),#90);
#94=DIRECTION('',(0.E0,0.E0,1.E0));
#95=VECTOR('',#94,2.E0);
#96=CARTESIAN_POINT('',(0.E0,0.E0,-2.E0));
#97=LINE('',#96,#95);
#98=CURVE_STYLE('',#48,POSITIVE_LENGTH_MEASURE(2.E-2),#16);
#99=PRESENTATION_STYLE_ASSIGNMENT((#98));
#100=STYLED_ITEM('',(#99),#97);
#101=DIRECTION('',(-1.E0,0.E0,0.E0));
#102=VECTOR('',#101,1.26E2);
#103=CARTESIAN_POINT('',(1.26E2,-1.E1,0.E0));
#104=LINE('',#103,#102);
#105=CURVE_STYLE('',#48,POSITIVE_LENGTH_MEASURE(2.E-2),#16);
#106=PRESENTATION_STYLE_ASSIGNMENT((#105));
#107=STYLED_ITEM('',(#106),#104);
#108=DIRECTION('',(-1.E0,0.E0,0.E0));
#109=VECTOR('',#108,1.26E2);
#110=CARTESIAN_POINT('',(1.26E2,0.E0,0.E0));
#111=LINE('',#110,#109);
#112=CURVE_STYLE('',#48,POSITIVE_LENGTH_MEASURE(2.E-2),#16);
#113=PRESENTATION_STYLE_ASSIGNMENT((#112));
#114=STYLED_ITEM('',(#113),#111);
#115=DIRECTION('',(-1.E0,0.E0,0.E0));
#116=VECTOR('',#115,1.26E2);
#117=CARTESIAN_POINT('',(1.26E2,0.E0,-2.E0));
#118=LINE('',#117,#116);
#119=CURVE_STYLE('',#48,POSITIVE_LENGTH_MEASURE(2.E-2),#16);
#120=PRESENTATION_STYLE_ASSIGNMENT((#119));
#121=STYLED_ITEM('',(#120),#118);
#122=DIRECTION('',(-1.E0,0.E0,0.E0));
#123=VECTOR('',#122,1.26E2);
#124=CARTESIAN_POINT('',(1.26E2,-5.E-1,-2.E0));
#125=LINE('',#124,#123);
#126=CURVE_STYLE('',#48,POSITIVE_LENGTH_MEASURE(2.E-2),#16);
#127=PRESENTATION_STYLE_ASSIGNMENT((#126));
#128=STYLED_ITEM('',(#127),#125);
#129=DIRECTION('',(-1.E0,0.E0,0.E0));
#130=VECTOR('',#129,1.26E2);
#131=CARTESIAN_POINT('',(1.26E2,-5.E-1,-2.64E0));
#132=LINE('',#131,#130);
#133=CURVE_STYLE('',#48,POSITIVE_LENGTH_MEASURE(2.E-2),#16);
#134=PRESENTATION_STYLE_ASSIGNMENT((#133));
#135=STYLED_ITEM('',(#134),#132);
#136=DIRECTION('',(-1.E0,0.E0,0.E0));
#137=VECTOR('',#136,1.26E2);
#138=CARTESIAN_POINT('',(1.26E2,-9.5E0,-2.64E0));
#139=LINE('',#138,#137);
#140=CURVE_STYLE('',#48,POSITIVE_LENGTH_MEASURE(2.E-2),#16);
#141=PRESENTATION_STYLE_ASSIGNMENT((#140));
#142=STYLED_ITEM('',(#141),#139);
#143=DIRECTION('',(-1.E0,0.E0,0.E0));
#144=VECTOR('',#143,1.26E2);
#145=CARTESIAN_POINT('',(1.26E2,-9.5E0,-2.E0));
#146=LINE('',#145,#144);
#147=CURVE_STYLE('',#48,POSITIVE_LENGTH_MEASURE(2.E-2),#16);
#148=PRESENTATION_STYLE_ASSIGNMENT((#147));
#149=STYLED_ITEM('',(#148),#146);
#150=DIRECTION('',(-1.E0,0.E0,0.E0));
#151=VECTOR('',#150,1.26E2);
#152=CARTESIAN_POINT('',(1.26E2,-1.E1,-2.E0));
#153=LINE('',#152,#151);
#154=CURVE_STYLE('',#48,POSITIVE_LENGTH_MEASURE(2.E-2),#16);
#155=PRESENTATION_STYLE_ASSIGNMENT((#154));
#156=STYLED_ITEM('',(#155),#153);
#157=DIRECTION('',(0.E0,-1.E0,0.E0));
#158=VECTOR('',#157,1.E1);
#159=CARTESIAN_POINT('',(1.26E2,0.E0,0.E0));
#160=LINE('',#159,#158);
#161=CURVE_STYLE('',#48,POSITIVE_LENGTH_MEASURE(2.E-2),#16);
#162=PRESENTATION_STYLE_ASSIGNMENT((#161));
#163=STYLED_ITEM('',(#162),#160);
#164=DIRECTION('',(0.E0,0.E0,1.E0));
#165=VECTOR('',#164,2.E0);
#166=CARTESIAN_POINT('',(1.26E2,0.E0,-2.E0));
#167=LINE('',#166,#165);
#168=CURVE_STYLE('',#48,POSITIVE_LENGTH_MEASURE(2.E-2),#16);
#169=PRESENTATION_STYLE_ASSIGNMENT((#168));
#170=STYLED_ITEM('',(#169),#167);
#171=DIRECTION('',(0.E0,1.E0,0.E0));
#172=VECTOR('',#171,5.E-1);
#173=CARTESIAN_POINT('',(1.26E2,-5.E-1,-2.E0));
#174=LINE('',#173,#172);
#175=CURVE_STYLE('',#48,POSITIVE_LENGTH_MEASURE(2.E-2),#16);
#176=PRESENTATION_STYLE_ASSIGNMENT((#175));
#177=STYLED_ITEM('',(#176),#174);
#178=DIRECTION('',(0.E0,0.E0,1.E0));
#179=VECTOR('',#178,6.4E-1);
#180=CARTESIAN_POINT('',(1.26E2,-5.E-1,-2.64E0));
#181=LINE('',#180,#179);
#182=CURVE_STYLE('',#48,POSITIVE_LENGTH_MEASURE(2.E-2),#16);
#183=PRESENTATION_STYLE_ASSIGNMENT((#182));
#184=STYLED_ITEM('',(#183),#181);
#185=DIRECTION('',(0.E0,1.E0,0.E0));
#186=VECTOR('',#185,9.E0);
#187=CARTESIAN_POINT('',(1.26E2,-9.5E0,-2.64E0));
#188=LINE('',#187,#186);
#189=CURVE_STYLE('',#48,POSITIVE_LENGTH_MEASURE(2.E-2),#16);
#190=PRESENTATION_STYLE_ASSIGNMENT((#189));
#191=STYLED_ITEM('',(#190),#188);
#192=DIRECTION('',(0.E0,0.E0,-1.E0));
#193=VECTOR('',#192,6.4E-1);
#194=CARTESIAN_POINT('',(1.26E2,-9.5E0,-2.E0));
#195=LINE('',#194,#193);
#196=CURVE_STYLE('',#48,POSITIVE_LENGTH_MEASURE(2.E-2),#16);
#197=PRESENTATION_STYLE_ASSIGNMENT((#196));
#198=STYLED_ITEM('',(#197),#195);
#199=DIRECTION('',(0.E0,1.E0,0.E0));
#200=VECTOR('',#199,5.E-1);
#201=CARTESIAN_POINT('',(1.26E2,-1.E1,-2.E0));
#202=LINE('',#201,#200);
#203=CURVE_STYLE('',#48,POSITIVE_LENGTH_MEASURE(2.E-2),#16);
#204=PRESENTATION_STYLE_ASSIGNMENT((#203));
#205=STYLED_ITEM('',(#204),#202);
#206=DIRECTION('',(0.E0,0.E0,-1.E0));
#207=VECTOR('',#206,2.E0);
#208=CARTESIAN_POINT('',(1.26E2,-1.E1,0.E0));
#209=LINE('',#208,#207);
#210=CURVE_STYLE('',#48,POSITIVE_LENGTH_MEASURE(2.E-2),#16);
#211=PRESENTATION_STYLE_ASSIGNMENT((#210));
#212=STYLED_ITEM('',(#211),#209);
#213=CARTESIAN_POINT('',(0.E0,0.E0,0.E0));
#214=CARTESIAN_POINT('',(0.E0,-1.E1,0.E0));
#215=VERTEX_POINT('',#213);
#216=VERTEX_POINT('',#214);
#217=CARTESIAN_POINT('',(0.E0,0.E0,-2.E0));
#218=VERTEX_POINT('',#217);
#219=CARTESIAN_POINT('',(0.E0,-5.E-1,-2.E0));
#220=VERTEX_POINT('',#219);
#221=CARTESIAN_POINT('',(0.E0,-5.E-1,-2.64E0));
#222=VERTEX_POINT('',#221);
#223=CARTESIAN_POINT('',(0.E0,-9.5E0,-2.64E0));
#224=VERTEX_POINT('',#223);
#225=CARTESIAN_POINT('',(0.E0,-9.5E0,-2.E0));
#226=VERTEX_POINT('',#225);
#227=CARTESIAN_POINT('',(0.E0,-1.E1,-2.E0));
#228=VERTEX_POINT('',#227);
#229=CARTESIAN_POINT('',(1.26E2,0.E0,0.E0));
#230=CARTESIAN_POINT('',(1.26E2,-1.E1,0.E0));
#231=VERTEX_POINT('',#229);
#232=VERTEX_POINT('',#230);
#233=CARTESIAN_POINT('',(1.26E2,0.E0,-2.E0));
#234=VERTEX_POINT('',#233);
#235=CARTESIAN_POINT('',(1.26E2,-5.E-1,-2.E0));
#236=VERTEX_POINT('',#235);
#237=CARTESIAN_POINT('',(1.26E2,-5.E-1,-2.64E0));
#238=VERTEX_POINT('',#237);
#239=CARTESIAN_POINT('',(1.26E2,-9.5E0,-2.64E0));
#240=VERTEX_POINT('',#239);
#241=CARTESIAN_POINT('',(1.26E2,-9.5E0,-2.E0));
#242=VERTEX_POINT('',#241);
#243=CARTESIAN_POINT('',(1.26E2,-1.E1,-2.E0));
#244=VERTEX_POINT('',#243);
#245=CARTESIAN_POINT('',(0.E0,0.E0,0.E0));
#246=DIRECTION('',(-1.E0,0.E0,0.E0));
#247=DIRECTION('',(0.E0,-1.E0,0.E0));
#248=AXIS2_PLACEMENT_3D('',#245,#246,#247);
#249=PLANE('',#248);
#251=ORIENTED_EDGE('',*,*,#250,.T.);
#253=ORIENTED_EDGE('',*,*,#252,.T.);
#255=ORIENTED_EDGE('',*,*,#254,.T.);
#257=ORIENTED_EDGE('',*,*,#256,.T.);
#259=ORIENTED_EDGE('',*,*,#258,.T.);
#261=ORIENTED_EDGE('',*,*,#260,.T.);
#263=ORIENTED_EDGE('',*,*,#262,.T.);
#265=ORIENTED_EDGE('',*,*,#264,.T.);
#266=EDGE_LOOP('',(#251,#253,#255,#257,#259,#261,#263,#265));
#267=FACE_OUTER_BOUND('',#266,.F.);
#269=CARTESIAN_POINT('',(0.E0,-1.E1,0.E0));
#270=DIRECTION('',(0.E0,0.E0,1.E0));
#271=DIRECTION('',(0.E0,1.E0,0.E0));
#272=AXIS2_PLACEMENT_3D('',#269,#270,#271);
#273=PLANE('',#272);
#274=ORIENTED_EDGE('',*,*,#250,.F.);
#276=ORIENTED_EDGE('',*,*,#275,.F.);
#278=ORIENTED_EDGE('',*,*,#277,.T.);
#280=ORIENTED_EDGE('',*,*,#279,.T.);
#281=EDGE_LOOP('',(#274,#276,#278,#280));
#282=FACE_OUTER_BOUND('',#281,.F.);
#284=CARTESIAN_POINT('',(0.E0,0.E0,0.E0));
#285=DIRECTION('',(0.E0,1.E0,0.E0));
#286=DIRECTION('',(0.E0,0.E0,-1.E0));
#287=AXIS2_PLACEMENT_3D('',#284,#285,#286);
#288=PLANE('',#287);
#289=ORIENTED_EDGE('',*,*,#264,.F.);
#291=ORIENTED_EDGE('',*,*,#290,.F.);
#293=ORIENTED_EDGE('',*,*,#292,.T.);
#294=ORIENTED_EDGE('',*,*,#275,.T.);
#295=EDGE_LOOP('',(#289,#291,#293,#294));
#296=FACE_OUTER_BOUND('',#295,.F.);
#298=CARTESIAN_POINT('',(0.E0,0.E0,-2.E0));
#299=DIRECTION('',(0.E0,0.E0,-1.E0));
#300=DIRECTION('',(0.E0,-1.E0,0.E0));
#301=AXIS2_PLACEMENT_3D('',#298,#299,#300);
#302=PLANE('',#301);
#303=ORIENTED_EDGE('',*,*,#262,.F.);
#305=ORIENTED_EDGE('',*,*,#304,.F.);
#307=ORIENTED_EDGE('',*,*,#306,.T.);
#308=ORIENTED_EDGE('',*,*,#290,.T.);
#309=EDGE_LOOP('',(#303,#305,#307,#308));
#310=FACE_OUTER_BOUND('',#309,.F.);
#312=CARTESIAN_POINT('',(0.E0,-5.E-1,-2.E0));
#313=DIRECTION('',(0.E0,1.E0,0.E0));
#314=DIRECTION('',(0.E0,0.E0,-1.E0));
#315=AXIS2_PLACEMENT_3D('',#312,#313,#314);
#316=PLANE('',#315);
#317=ORIENTED_EDGE('',*,*,#260,.F.);
#319=ORIENTED_EDGE('',*,*,#318,.F.);
#321=ORIENTED_EDGE('',*,*,#320,.T.);
#322=ORIENTED_EDGE('',*,*,#304,.T.);
#323=EDGE_LOOP('',(#317,#319,#321,#322));
#324=FACE_OUTER_BOUND('',#323,.F.);
#326=CARTESIAN_POINT('',(0.E0,-5.E-1,-2.64E0));
#327=DIRECTION('',(0.E0,0.E0,-1.E0));
#328=DIRECTION('',(0.E0,-1.E0,0.E0));
#329=AXIS2_PLACEMENT_3D('',#326,#327,#328);
#330=PLANE('',#329);
#331=ORIENTED_EDGE('',*,*,#258,.F.);
#333=ORIENTED_EDGE('',*,*,#332,.F.);
#335=ORIENTED_EDGE('',*,*,#334,.T.);
#336=ORIENTED_EDGE('',*,*,#318,.T.);
#337=EDGE_LOOP('',(#331,#333,#335,#336));
#338=FACE_OUTER_BOUND('',#337,.F.);
#340=CARTESIAN_POINT('',(0.E0,-9.5E0,-2.64E0));
#341=DIRECTION('',(0.E0,-1.E0,0.E0));
#342=DIRECTION('',(0.E0,0.E0,1.E0));
#343=AXIS2_PLACEMENT_3D('',#340,#341,#342);
#344=PLANE('',#343);
#345=ORIENTED_EDGE('',*,*,#256,.F.);
#347=ORIENTED_EDGE('',*,*,#346,.F.);
#349=ORIENTED_EDGE('',*,*,#348,.T.);
#350=ORIENTED_EDGE('',*,*,#332,.T.);
#351=EDGE_LOOP('',(#345,#347,#349,#350));
#352=FACE_OUTER_BOUND('',#351,.F.);
#354=CARTESIAN_POINT('',(0.E0,-9.5E0,-2.E0));
#355=DIRECTION('',(0.E0,0.E0,-1.E0));
#356=DIRECTION('',(0.E0,-1.E0,0.E0));
#357=AXIS2_PLACEMENT_3D('',#354,#355,#356);
#358=PLANE('',#357);
#359=ORIENTED_EDGE('',*,*,#254,.F.);
#361=ORIENTED_EDGE('',*,*,#360,.F.);
#363=ORIENTED_EDGE('',*,*,#362,.T.);
#364=ORIENTED_EDGE('',*,*,#346,.T.);
#365=EDGE_LOOP('',(#359,#361,#363,#364));
#366=FACE_OUTER_BOUND('',#365,.F.);
#368=CARTESIAN_POINT('',(0.E0,-1.E1,-2.E0));
#369=DIRECTION('',(0.E0,-1.E0,0.E0));
#370=DIRECTION('',(0.E0,0.E0,1.E0));
#371=AXIS2_PLACEMENT_3D('',#368,#369,#370);
#372=PLANE('',#371);
#373=ORIENTED_EDGE('',*,*,#252,.F.);
#374=ORIENTED_EDGE('',*,*,#279,.F.);
#376=ORIENTED_EDGE('',*,*,#375,.T.);
#377=ORIENTED_EDGE('',*,*,#360,.T.);
#378=EDGE_LOOP('',(#373,#374,#376,#377));
#379=FACE_OUTER_BOUND('',#378,.F.);
#381=CARTESIAN_POINT('',(1.26E2,0.E0,0.E0));
#382=DIRECTION('',(1.E0,0.E0,0.E0));
#383=DIRECTION('',(0.E0,1.E0,0.E0));
#384=AXIS2_PLACEMENT_3D('',#381,#382,#383);
#385=PLANE('',#384);
#386=ORIENTED_EDGE('',*,*,#277,.F.);
#387=ORIENTED_EDGE('',*,*,#292,.F.);
#388=ORIENTED_EDGE('',*,*,#306,.F.);
#389=ORIENTED_EDGE('',*,*,#320,.F.);
#390=ORIENTED_EDGE('',*,*,#334,.F.);
#391=ORIENTED_EDGE('',*,*,#348,.F.);
#392=ORIENTED_EDGE('',*,*,#362,.F.);
#393=ORIENTED_EDGE('',*,*,#375,.F.);
#394=EDGE_LOOP('',(#386,#387,#388,#389,#390,#391,#392,#393));
#395=FACE_OUTER_BOUND('',#394,.F.);
#397=CLOSED_SHELL('',(#268,#283,#297,#311,#325,#339,#353,#367,#380,#396));
#398=MANIFOLD_SOLID_BREP('',#397);
#399=FILL_AREA_STYLE_COLOUR('',#16);
#400=FILL_AREA_STYLE('',(#399));
#401=SURFACE_STYLE_FILL_AREA(#400);
#402=SURFACE_SIDE_STYLE('',(#401));
#403=SURFACE_STYLE_USAGE(.BOTH.,#402);
#404=PRESENTATION_STYLE_ASSIGNMENT((#403));
#43=STYLED_ITEM('',(#404),#398);
#405=DIRECTION('',(1.E0,0.E0,0.E0));
#406=VECTOR('',#405,1.26E2);
#407=CARTESIAN_POINT('',(0.E0,-3.320142687323E0,0.E0));
#408=LINE('',#407,#406);
#412=CURVE_STYLE('',#48,POSITIVE_LENGTH_MEASURE(2.E-2),#1);
#413=PRESENTATION_STYLE_ASSIGNMENT((#412));
#414=STYLED_ITEM('',(#413),#411);
#416=DIRECTION('',(-1.E0,0.E0,0.E0));
#417=VECTOR('',#416,1.26E2);
#418=CARTESIAN_POINT('',(1.26E2,-6.173717090152E0,0.E0));
#419=LINE('',#418,#417);
#423=CURVE_STYLE('',#48,POSITIVE_LENGTH_MEASURE(2.E-2),#1);
#424=PRESENTATION_STYLE_ASSIGNMENT((#423));
#425=STYLED_ITEM('',(#424),#422);
#426=DIRECTION('',(1.E0,0.E0,0.E0));
#427=VECTOR('',#426,1.26E2);
#428=CARTESIAN_POINT('',(0.E0,-9.E0,0.E0));
#429=LINE('',#428,#427);
#433=CURVE_STYLE('',#48,POSITIVE_LENGTH_MEASURE(2.E-2),#1);
#434=PRESENTATION_STYLE_ASSIGNMENT((#433));
#435=STYLED_ITEM('',(#434),#432);
#436=DIRECTION('',(1.E0,0.E0,0.E0));
#437=VECTOR('',#436,1.26E2);
#438=CARTESIAN_POINT('',(0.E0,-1.E0,0.E0));
#439=LINE('',#438,#437);
#443=CURVE_STYLE('',#48,POSITIVE_LENGTH_MEASURE(2.E-2),#1);
#444=PRESENTATION_STYLE_ASSIGNMENT((#443));
#445=STYLED_ITEM('',(#444),#442);
#446=DIRECTION('',(0.E0,-1.E0,0.E0));
#447=VECTOR('',#446,2.68E0);
#448=CARTESIAN_POINT('',(9.E0,-6.193717090152E0,0.E0));
#449=LINE('',#448,#447);
#451=CURVE_STYLE('',#48,POSITIVE_LENGTH_MEASURE(2.E-2),#1);
#452=PRESENTATION_STYLE_ASSIGNMENT((#451));
#453=STYLED_ITEM('',(#452),#450);
#455=DIRECTION('',(1.E0,0.E0,0.E0));
#456=VECTOR('',#455,2.E0);
#457=CARTESIAN_POINT('',(9.E0,-8.873717090152E0,0.E0));
#458=LINE('',#457,#456);
#460=CURVE_STYLE('',#48,POSITIVE_LENGTH_MEASURE(2.E-2),#1);
#461=PRESENTATION_STYLE_ASSIGNMENT((#460));
#462=STYLED_ITEM('',(#461),#459);
#464=DIRECTION('',(0.E0,1.E0,0.E0));
#465=VECTOR('',#464,2.68E0);
#466=CARTESIAN_POINT('',(1.1E1,-8.873717090152E0,0.E0));
#467=LINE('',#466,#465);
#469=CURVE_STYLE('',#48,POSITIVE_LENGTH_MEASURE(2.E-2),#1);
#470=PRESENTATION_STYLE_ASSIGNMENT((#469));
#471=STYLED_ITEM('',(#470),#468);
#473=DIRECTION('',(-1.E0,0.E0,0.E0));
#474=VECTOR('',#473,2.E0);
#475=CARTESIAN_POINT('',(1.1E1,-6.193717090152E0,0.E0));
#476=LINE('',#475,#474);
#478=CURVE_STYLE('',#48,POSITIVE_LENGTH_MEASURE(2.E-2),#1);
#479=PRESENTATION_STYLE_ASSIGNMENT((#478));
#480=STYLED_ITEM('',(#479),#477);
#483=DIRECTION('',(0.E0,-1.E0,0.E0));
#484=VECTOR('',#483,2.68E0);
#485=CARTESIAN_POINT('',(5.9E1,-6.193717090152E0,0.E0));
#486=LINE('',#485,#484);
#488=CURVE_STYLE('',#48,POSITIVE_LENGTH_MEASURE(2.E-2),#1);
#489=PRESENTATION_STYLE_ASSIGNMENT((#488));
#490=STYLED_ITEM('',(#489),#487);
#492=DIRECTION('',(1.E0,0.E0,0.E0));
#493=VECTOR('',#492,2.E0);
#494=CARTESIAN_POINT('',(5.9E1,-8.873717090152E0,0.E0));
#495=LINE('',#494,#493);
#497=CURVE_STYLE('',#48,POSITIVE_LENGTH_MEASURE(2.E-2),#1);
#498=PRESENTATION_STYLE_ASSIGNMENT((#497));
#499=STYLED_ITEM('',(#498),#496);
#501=DIRECTION('',(0.E0,1.E0,0.E0));
#502=VECTOR('',#501,2.68E0);
#503=CARTESIAN_POINT('',(6.1E1,-8.873717090152E0,0.E0));
#504=LINE('',#503,#502);
#506=CURVE_STYLE('',#48,POSITIVE_LENGTH_MEASURE(2.E-2),#1);
#507=PRESENTATION_STYLE_ASSIGNMENT((#506));
#508=STYLED_ITEM('',(#507),#505);
#510=DIRECTION('',(-1.E0,0.E0,0.E0));
#511=VECTOR('',#510,2.E0);
#512=CARTESIAN_POINT('',(6.1E1,-6.193717090152E0,0.E0));
#513=LINE('',#512,#511);
#515=CURVE_STYLE('',#48,POSITIVE_LENGTH_MEASURE(2.E-2),#1);
#516=PRESENTATION_STYLE_ASSIGNMENT((#515));
#517=STYLED_ITEM('',(#516),#514);
#520=DIRECTION('',(0.E0,-1.E0,0.E0));
#521=VECTOR('',#520,2.68E0);
#522=CARTESIAN_POINT('',(1.09E2,-6.193717090152E0,0.E0));
#523=LINE('',#522,#521);
#525=CURVE_STYLE('',#48,POSITIVE_LENGTH_MEASURE(2.E-2),#1);
#526=PRESENTATION_STYLE_ASSIGNMENT((#525));
#527=STYLED_ITEM('',(#526),#524);
#529=DIRECTION('',(1.E0,0.E0,0.E0));
#530=VECTOR('',#529,2.E0);
#531=CARTESIAN_POINT('',(1.09E2,-8.873717090152E0,0.E0));
#532=LINE('',#531,#530);
#534=CURVE_STYLE('',#48,POSITIVE_LENGTH_MEASURE(2.E-2),#1);
#535=PRESENTATION_STYLE_ASSIGNMENT((#534));
#536=STYLED_ITEM('',(#535),#533);
#538=DIRECTION('',(0.E0,1.E0,0.E0));
#539=VECTOR('',#538,2.68E0);
#540=CARTESIAN_POINT('',(1.11E2,-8.873717090152E0,0.E0));
#541=LINE('',#540,#539);
#543=CURVE_STYLE('',#48,POSITIVE_LENGTH_MEASURE(2.E-2),#1);
#544=PRESENTATION_STYLE_ASSIGNMENT((#543));
#545=STYLED_ITEM('',(#544),#542);
#547=DIRECTION('',(-1.E0,0.E0,0.E0));
#548=VECTOR('',#547,2.E0);
#549=CARTESIAN_POINT('',(1.11E2,-6.193717090152E0,0.E0));
#550=LINE('',#549,#548);
#552=CURVE_STYLE('',#48,POSITIVE_LENGTH_MEASURE(2.E-2),#1);
#553=PRESENTATION_STYLE_ASSIGNMENT((#552));
#554=STYLED_ITEM('',(#553),#551);
#557=PRESENTATION_LAYER_ASSIGNMENT('_WHITE_HOLE','',(#411,#422));
#558=PRESENTATION_LAYER_ASSIGNMENT('SK_TEILUNG','',(#411,#422,#432,#442));
#561=PLANE_ANGLE_MEASURE_WITH_UNIT(PLANE_ANGLE_MEASURE(1.745329251994E-2),#560);
#562=(CONVERSION_BASED_UNIT('DEGREE',#561)NAMED_UNIT(*)PLANE_ANGLE_UNIT());
#564=UNCERTAINTY_MEASURE_WITH_UNIT(LENGTH_MEASURE(1.E-2),#559,
'distance_accuracy_value',
'Maximum model space distance between geometric entities at asserted connectivities');
#415=GEOMETRIC_SET('',(#411,#422,#432,#442,#482,#519,#556));
#568=CARTESIAN_POINT('',(0.E0,0.E0,0.E0));
#569=DIRECTION('',(0.E0,0.E0,1.E0));
#570=DIRECTION('',(1.E0,0.E0,0.E0));
#573=SHAPE_REPRESENTATION_RELATIONSHIP('','',#572,#566);
#574=SHAPE_REPRESENTATION_RELATIONSHIP('','',#572,#567);
#575=MECHANICAL_DESIGN_GEOMETRIC_PRESENTATION_REPRESENTATION('',(#51,#58,#65,
#72,#79,#86,#93,#100,#107,#114,#121,#128,#135,#142,#149,#156,#163,#170,#177,
#184,#191,#198,#205,#212,#43,#414,#425,#435,#445,#453,#462,#471,#480,#490,#499,
#508,#517,#527,#536,#545,#554),#565);
#576=APPLICATION_CONTEXT('automotive_design');
#577=APPLICATION_PROTOCOL_DEFINITION('international standard',
'automotive_design',2001,#576);
#578=PRODUCT_DEFINITION_CONTEXT('part definition',#576,'design');
#579=PRODUCT_CONTEXT('',#576,'mechanical');
#580=PRODUCT('1191274-01-Z02','1191274-01-Z02','NOT SPECIFIED',(#579));
#581=PRODUCT_DEFINITION_FORMATION('1','LAST_VERSION',#580);
#589=DERIVED_UNIT_ELEMENT(#588,2.E0);
#590=DERIVED_UNIT((#589));
#591=MEASURE_REPRESENTATION_ITEM('surface area measure',AREA_MEASURE(3.2368E3),
#590);
#596=DERIVED_UNIT_ELEMENT(#595,3.E0);
#597=DERIVED_UNIT((#596));
#598=MEASURE_REPRESENTATION_ITEM('volume measure',VOLUME_MEASURE(3.24576E3),
#597);
#602=CARTESIAN_POINT('centre point',(6.3E1,-5.E0,-1.295155279503E0));
#607=DERIVED_UNIT_ELEMENT(#606,2.E0);
#608=DERIVED_UNIT((#607));
#609=MEASURE_REPRESENTATION_ITEM('surface area measure',AREA_MEASURE(3.2368E3),
#608);
#614=DERIVED_UNIT_ELEMENT(#613,3.E0);
#615=DERIVED_UNIT((#614));
#616=MEASURE_REPRESENTATION_ITEM('volume measure',VOLUME_MEASURE(3.24576E3),
#615);
#620=CARTESIAN_POINT('centre point',(6.3E1,-5.E0,-1.295155279503E0));
#625=PRODUCT_RELATED_PRODUCT_CATEGORY('part','',(#580));
#1=DRAUGHTING_PRE_DEFINED_COLOUR('black');
#2=DRAUGHTING_PRE_DEFINED_COLOUR('blue');
#3=DRAUGHTING_PRE_DEFINED_COLOUR('green');
#4=COLOUR_RGB('',1.1765E-2,3.13725E-1,0.E0);
#5=COLOUR_RGB('',4.8967E-2,8.05825E-1,1.31099E-1);
#6=COLOUR_RGB('',1.15733E-1,1.22747E-1,1.31068E-1);
#7=COLOUR_RGB('',1.3E-1,1.3E-1,1.3E-1);
#8=COLOUR_RGB('',1.5E-1,1.5E-1,1.5E-1);
#9=COLOUR_RGB('',2.5E-1,2.2E-1,3.3E-1);
#10=COLOUR_RGB('',2.54E-1,6.E-3,5.7E-1);
#11=COLOUR_RGB('',2.67E-1,7.2E-1,1.52E-1);
#12=COLOUR_RGB('',3.4E-1,2.57E-1,2.11E-1);
#13=COLOUR_RGB('',3.56863E-1,3.56863E-1,3.56863E-1);
#14=COLOUR_RGB('',3.8E-1,3.61E-1,3.38E-1);
#15=COLOUR_RGB('',3.88E-1,8.22E-1,9.02E-1);
#16=COLOUR_RGB('',5.01961E-1,5.01961E-1,5.01961E-1);
#17=COLOUR_RGB('',6.35294E-1,6.86275E-1,7.4902E-1);
#18=COLOUR_RGB('',6.59E-1,3.18E-1,0.E0);
#19=COLOUR_RGB('',6.60108E-1,7.00114E-1,7.47573E-1);
#20=COLOUR_RGB('',6.7E-1,9.14E-1,9.3E-1);
#21=COLOUR_RGB('',7.E-1,2.4E-1,3.1E-1);
#22=COLOUR_RGB('',7.41176E-1,6.82353E-1,6.54902E-1);
#23=COLOUR_RGB('',7.52941E-1,7.52941E-1,7.52941E-1);
#24=COLOUR_RGB('',7.6E-1,7.8E-1,7.6E-1);
#25=COLOUR_RGB('',7.9E-1,1.E0,9.12E-1);
#26=COLOUR_RGB('',8.31E-1,8.08E-1,8.6E-1);
#27=COLOUR_RGB('',8.5E-1,9.73E-1,1.E0);
#28=COLOUR_RGB('',8.784E-1,9.49E-1,1.E0);
#29=COLOUR_RGB('',8.94118E-1,8.7451E-1,8.58824E-1);
#30=COLOUR_RGB('',8.97432E-1,9.47792E-1,9.66019E-1);
#31=COLOUR_RGB('',9.2E-1,1.E0,9.66E-1);
#32=COLOUR_RGB('',9.3E-1,7.69E-1,4.56E-1);
#33=COLOUR_RGB('',9.4E-1,8.E-1,6.6E-2);
#34=COLOUR_RGB('',9.5E-1,9.13E-1,8.17E-1);
#35=COLOUR_RGB('',9.52941E-1,9.37255E-1,9.33333E-1);
#36=COLOUR_RGB('',9.56863E-1,9.92157E-1,1.E0);
#37=COLOUR_RGB('',9.80583E-1,1.48319E-1,1.9371E-2);
#38=DRAUGHTING_PRE_DEFINED_COLOUR('red');
#39=COLOUR_RGB('',1.E0,6.59E-1,0.E0);
#40=COLOUR_RGB('',1.E0,6.701E-1,1.58803E-1);
#41=DRAUGHTING_PRE_DEFINED_COLOUR('yellow');
#42=DRAUGHTING_PRE_DEFINED_COLOUR('white');
#250=EDGE_CURVE('',#215,#216,#47,.T.);
#252=EDGE_CURVE('',#216,#228,#55,.T.);
#254=EDGE_CURVE('',#228,#226,#62,.T.);
#256=EDGE_CURVE('',#226,#224,#69,.T.);
#258=EDGE_CURVE('',#224,#222,#76,.T.);
#260=EDGE_CURVE('',#222,#220,#83,.T.);
#262=EDGE_CURVE('',#220,#218,#90,.T.);
#264=EDGE_CURVE('',#218,#215,#97,.T.);
#268=ADVANCED_FACE('',(#267),#249,.T.);
#275=EDGE_CURVE('',#231,#215,#111,.T.);
#277=EDGE_CURVE('',#231,#232,#160,.T.);
#279=EDGE_CURVE('',#232,#216,#104,.T.);
#283=ADVANCED_FACE('',(#282),#273,.T.);
#290=EDGE_CURVE('',#234,#218,#118,.T.);
#292=EDGE_CURVE('',#234,#231,#167,.T.);
#297=ADVANCED_FACE('',(#296),#288,.T.);
#304=EDGE_CURVE('',#236,#220,#125,.T.);
#306=EDGE_CURVE('',#236,#234,#174,.T.);
#311=ADVANCED_FACE('',(#310),#302,.T.);
#318=EDGE_CURVE('',#238,#222,#132,.T.);
#320=EDGE_CURVE('',#238,#236,#181,.T.);
#325=ADVANCED_FACE('',(#324),#316,.T.);
#332=EDGE_CURVE('',#240,#224,#139,.T.);
#334=EDGE_CURVE('',#240,#238,#188,.T.);
#339=ADVANCED_FACE('',(#338),#330,.T.);
#346=EDGE_CURVE('',#242,#226,#146,.T.);
#348=EDGE_CURVE('',#242,#240,#195,.T.);
#353=ADVANCED_FACE('',(#352),#344,.T.);
#360=EDGE_CURVE('',#244,#228,#153,.T.);
#362=EDGE_CURVE('',#244,#242,#202,.T.);
#367=ADVANCED_FACE('',(#366),#358,.T.);
#375=EDGE_CURVE('',#232,#244,#209,.T.);
#380=ADVANCED_FACE('',(#379),#372,.T.);
#396=ADVANCED_FACE('',(#395),#385,.T.);
#409=TRIMMED_CURVE('',#408,(PARAMETER_VALUE(0.E0)),(PARAMETER_VALUE(1.E0)),.T.,
.UNSPECIFIED.);
#410=COMPOSITE_CURVE_SEGMENT(.CONTINUOUS.,.T.,#409);
#411=COMPOSITE_CURVE('',(#410),.F.);
#420=TRIMMED_CURVE('',#419,(PARAMETER_VALUE(0.E0)),(PARAMETER_VALUE(1.E0)),.T.,
.UNSPECIFIED.);
#421=COMPOSITE_CURVE_SEGMENT(.CONTINUOUS.,.T.,#420);
#422=COMPOSITE_CURVE('',(#421),.F.);
#430=TRIMMED_CURVE('',#429,(PARAMETER_VALUE(0.E0)),(PARAMETER_VALUE(1.E0)),.T.,
.UNSPECIFIED.);
#431=COMPOSITE_CURVE_SEGMENT(.CONTINUOUS.,.T.,#430);
#432=COMPOSITE_CURVE('',(#431),.F.);
#440=TRIMMED_CURVE('',#439,(PARAMETER_VALUE(0.E0)),(PARAMETER_VALUE(1.E0)),.T.,
.UNSPECIFIED.);
#441=COMPOSITE_CURVE_SEGMENT(.CONTINUOUS.,.T.,#440);
#442=COMPOSITE_CURVE('',(#441),.F.);
#450=TRIMMED_CURVE('',#449,(PARAMETER_VALUE(0.E0)),(PARAMETER_VALUE(1.E0)),.T.,
.UNSPECIFIED.);
#454=COMPOSITE_CURVE_SEGMENT(.CONTINUOUS.,.T.,#450);
#459=TRIMMED_CURVE('',#458,(PARAMETER_VALUE(0.E0)),(PARAMETER_VALUE(1.E0)),.T.,
.UNSPECIFIED.);
#463=COMPOSITE_CURVE_SEGMENT(.CONTINUOUS.,.T.,#459);
#468=TRIMMED_CURVE('',#467,(PARAMETER_VALUE(0.E0)),(PARAMETER_VALUE(1.E0)),.T.,
.UNSPECIFIED.);
#472=COMPOSITE_CURVE_SEGMENT(.CONTINUOUS.,.T.,#468);
#477=TRIMMED_CURVE('',#476,(PARAMETER_VALUE(0.E0)),(PARAMETER_VALUE(1.E0)),.T.,
.UNSPECIFIED.);
#481=COMPOSITE_CURVE_SEGMENT(.CONTINUOUS.,.T.,#477);
#482=COMPOSITE_CURVE('',(#454,#463,#472,#481),.F.);
#487=TRIMMED_CURVE('',#486,(PARAMETER_VALUE(0.E0)),(PARAMETER_VALUE(1.E0)),.T.,
.UNSPECIFIED.);
#491=COMPOSITE_CURVE_SEGMENT(.CONTINUOUS.,.T.,#487);
#496=TRIMMED_CURVE('',#495,(PARAMETER_VALUE(0.E0)),(PARAMETER_VALUE(1.E0)),.T.,
.UNSPECIFIED.);
#500=COMPOSITE_CURVE_SEGMENT(.CONTINUOUS.,.T.,#496);
#505=TRIMMED_CURVE('',#504,(PARAMETER_VALUE(0.E0)),(PARAMETER_VALUE(1.E0)),.T.,
.UNSPECIFIED.);
#509=COMPOSITE_CURVE_SEGMENT(.CONTINUOUS.,.T.,#505);
#514=TRIMMED_CURVE('',#513,(PARAMETER_VALUE(0.E0)),(PARAMETER_VALUE(1.E0)),.T.,
.UNSPECIFIED.);
#518=COMPOSITE_CURVE_SEGMENT(.CONTINUOUS.,.T.,#514);
#519=COMPOSITE_CURVE('',(#491,#500,#509,#518),.F.);
#524=TRIMMED_CURVE('',#523,(PARAMETER_VALUE(0.E0)),(PARAMETER_VALUE(1.E0)),.T.,
.UNSPECIFIED.);
#528=COMPOSITE_CURVE_SEGMENT(.CONTINUOUS.,.T.,#524);
#533=TRIMMED_CURVE('',#532,(PARAMETER_VALUE(0.E0)),(PARAMETER_VALUE(1.E0)),.T.,
.UNSPECIFIED.);
#537=COMPOSITE_CURVE_SEGMENT(.CONTINUOUS.,.T.,#533);
#542=TRIMMED_CURVE('',#541,(PARAMETER_VALUE(0.E0)),(PARAMETER_VALUE(1.E0)),.T.,
.UNSPECIFIED.);
#546=COMPOSITE_CURVE_SEGMENT(.CONTINUOUS.,.T.,#542);
#551=TRIMMED_CURVE('',#550,(PARAMETER_VALUE(0.E0)),(PARAMETER_VALUE(1.E0)),.T.,
.UNSPECIFIED.);
#555=COMPOSITE_CURVE_SEGMENT(.CONTINUOUS.,.T.,#551);
#556=COMPOSITE_CURVE('',(#528,#537,#546,#555),.F.);
#559=(LENGTH_UNIT()NAMED_UNIT(*)SI_UNIT(.MILLI.,.METRE.));
#560=(NAMED_UNIT(*)PLANE_ANGLE_UNIT()SI_UNIT($,.RADIAN.));
#563=(NAMED_UNIT(*)SI_UNIT($,.STERADIAN.)SOLID_ANGLE_UNIT());
#565=(GEOMETRIC_REPRESENTATION_CONTEXT(3)GLOBAL_UNCERTAINTY_ASSIGNED_CONTEXT((
#564))GLOBAL_UNIT_ASSIGNED_CONTEXT((#559,#562,#563))REPRESENTATION_CONTEXT
('ID1','3'));
#566=ADVANCED_BREP_SHAPE_REPRESENTATION('',(#398),#565);
#567=GEOMETRICALLY_BOUNDED_SURFACE_SHAPE_REPRESENTATION('',(#415),#565);
#571=AXIS2_PLACEMENT_3D('',#568,#569,#570);
#572=SHAPE_REPRESENTATION('',(#571),#565);
#582=PRODUCT_DEFINITION('part definition','',#581,#578);
#583=PRODUCT_DEFINITION_SHAPE('','SHAPE FOR 1191274-01-Z02.',#582);
#584=SHAPE_ASPECT('','solid data associated with 1191274-01-Z02',#583,.F.);
#585=PROPERTY_DEFINITION('',
'shape for solid data with which properties are associated',#584);
#586=SHAPE_REPRESENTATION('',(#398),#565);
#587=SHAPE_DEFINITION_REPRESENTATION(#585,#586);
#588=(LENGTH_UNIT()NAMED_UNIT(*)SI_UNIT(.MILLI.,.METRE.));
#592=PROPERTY_DEFINITION('geometric validation property',
'area of 1191274-01-Z02',#584);
#593=REPRESENTATION('surface area',(#591),#565);
#594=PROPERTY_DEFINITION_REPRESENTATION(#592,#593);
#595=(LENGTH_UNIT()NAMED_UNIT(*)SI_UNIT(.MILLI.,.METRE.));
#599=PROPERTY_DEFINITION('geometric validation property',
'volume of 1191274-01-Z02',#584);
#600=REPRESENTATION('volume',(#598),#565);
#601=PROPERTY_DEFINITION_REPRESENTATION(#599,#600);
#603=PROPERTY_DEFINITION('geometric validation property',
'centroid of 1191274-01-Z02',#584);
#604=REPRESENTATION('centroid',(#602),#565);
#605=PROPERTY_DEFINITION_REPRESENTATION(#603,#604);
#606=(LENGTH_UNIT()NAMED_UNIT(*)SI_UNIT(.MILLI.,.METRE.));
#610=PROPERTY_DEFINITION('geometric validation property',
'area of 1191274-01-Z02',#583);
#611=REPRESENTATION('surface area',(#609),#565);
#612=PROPERTY_DEFINITION_REPRESENTATION(#610,#611);
#613=(LENGTH_UNIT()NAMED_UNIT(*)SI_UNIT(.MILLI.,.METRE.));
#617=PROPERTY_DEFINITION('geometric validation property',
'volume of 1191274-01-Z02',#583);
#618=REPRESENTATION('volume',(#616),#565);
#619=PROPERTY_DEFINITION_REPRESENTATION(#617,#618);
#621=PROPERTY_DEFINITION('geometric validation property',
'centroid of 1191274-01-Z02',#583);
#622=REPRESENTATION('centroid',(#620),#565);
#623=PROPERTY_DEFINITION_REPRESENTATION(#621,#622);
#624=SHAPE_DEFINITION_REPRESENTATION(#583,#572);
ENDSEC;
END-ISO-10303-21;
